Cifra Club

Black Friday Cifra Club

A Estrela da Alva

Harpa Cristã

Cifra: Principal (violão e guitarra)
tom: A
E|-0---0-8-----0-----0--|-----0-1--0-----------|-3-3-3-2--3--5---7-0---|
B|-8-7-8-5--5--8-----1--|-3---1-3--1------3-5--|-5-5-5-4--5--6---6-13--|
G|-0-8-0----5--5---5-0--|-4---0-0--0--5---4-5--|-5-5-5-5--5--5---4-----|
D|---7---5--5-----------|-5-----------0---5-5--|-------------3---5-----|
A|-----------------7-3--|-------------0-----3--|-3-3-3-3--3--------12--|
E|-8-8-8-8--8--8---8----|-3---3-3--3------3----|-----------------------|

E|----------0---0----5-3----|-8--7--------------5-3----|-0----0----0-7----8---|
B|-13-12-10-8------3-----5--|-10----10-8---5--3--------|-8----8--7-8-6----5---|
G|-14-12-10-0---0--4-----5--|----12-10-9---5--4-----5--|-0----0--8-0-0----0---|
D|-10-10-10-10--10-3-----5--|-------7--10--8--3--------|---------7------------|
A|-----------------------3--|-8--8--8---------------7--|----------------------|
E|-13-13-13--------3--------|----------8---8--3-----8--|-8----8--8-8------8---|

E|-7----7--------0----10--|-12---12-10----------------|-0-----0--7-8---8--------|
B|------8--10-12-13---0---|---------0--13-13---12--10-|-8--7--8--6-5---5--------|
G|-7----7--10-10------12--|-12---12----12-14---12--10-|-0--8--0----0---5--------|
D|-5----5--10-12-10-------|-10---10-0--10-10---10--10-|-10----10----------------|
A|---------10-10-12---10--|---------------------------|----12-------------------|
E|------------------------|------8-----12-13---13--13-|----------3---3-8--------|

00:00 / 00:00
Outros vídeos desta música
Repetir
Outros vídeos desta música
Compositor não encontrado.
Colaboração e revisão:
  • Helon Oliveira
9.059 exibições
    • ½ Tom
    • A
    • Bb
    • B
    • C
    • Db
    • D
    • Eb
    • E
    • F
    • F#
    • G
    • Ab
  • Adicionar à lista

    0 comentários

    Ver todos os comentários

    Entre para oCifra Club PRO

    Tenha acesso a benefícios exclusivos no App e no Site

    • Chega de anúncios

    • Prioridade de compra em lançamentos

    • Mais recursos no app do Afinador

    • Atendimento Prioritário

    • Descontos nos produtos Cifra Club

    • Ajude a produzir mais conteúdo

    00:00 / 00:00

    Cifra Club Pro

    Aproveite o Cifra Club com benefícios exclusivos e sem anúncios
    Cifra Club Pro
    Aproveite o Cifra Club com benefícios exclusivos e sem anúncios
    OK