Cifra Club

Black Friday Cifra Club

A Fé Dos Santos

Harpa Cristã

Cifra: Principal (violão e guitarra)
tom: G
E|-------------0-0-|-0---0-0-0-----0-|-3---1-0-0-------|-----------------|
B|-------------1-1-|-1---1-1-1---1-1-|-1---0-1-1-1-1-1-|-3---3-3-3---2-3-|
G|-------------0-0-|-0-----2-0-----0-|-0---0-0-0-------|-4---4-4-4---3-4-|
D|-----------------|-----4-------2---|-2---0-----2-2-2-|-3---3-3-3---2-3-|
A|-------------3-3-|-3---3-3-3---3-3-|-------3-3-3-3-3-|-----------------|
E|-----------------|-----------------|-----------------|-3---3-3-3---3-3-|

E|-------------0-0-|-------3-3-5-7--8--|-10--3-------3-3-|-3------------1-0---|
B|-6---5-3-5---8-8-|-8---8---6---0-----|-6---6-------6-6-|-6---8--8--8--3-1-3-|
G|-4---4-4-5-5-0-5-|-5---5-5-5---10-10-|-0---4-------4-4-|-4-5-10-10-10-2-0-4-|
D|-7---5-3-5-------|---------0---0--7--|-----------------|-----12-10-9------3-|
A|-----------7-----|-7---6-6-----------|-----------------|-----------10-------|
E|-3---3-3-8-8-8-8-|----------------8--|-7---3-------3-3-|-3-5-7--10------3-3-|

E|-------------3-3-|-3---5-7-8---8-8-|----------------8--|-12--10-0------------|
B|-----------------|-------0---------|-8-----------8--8--|-8---6--13-10--12-13-|
G|-5-----------0-0-|-0---2---5---5-5-|-0-----------9-----|-0---0--0--11--11-11-|
D|-2---------------|-----------------|-------------10-10-|-10--9--10-10--12-0--|
A|-3---------------|-----------------|-------------------|------------------12-|
E|-----------------|-----------------|-------------8--12-|-----------10--10----|

E|-10----------12-10-|-8---5-0--8---------|---------------8--10-|
B|-0-----------0--0--|-5---5-12-10--12-10-|-8---------8---------|
G|-12----------12-10-|-5---5-0------12-10-|-9---10-10-----9--10-|
D|-------------------|-7---7-10-10--10-10-|-10------------10-10-|
A|-10----------10-10-|----------8---8--8--|---------------12-11-|
E|-------------------|--------------------|-8---10-10-12--------|

E|-12--10-0------------|-0------------|
B|-----0--13-12--10-12-|-13-----------|
G|-12--10-0--10--10-10-|-0------------|
D|-10-----10-12--9-----|--------------|
A|-10--10----10--10-10-|--------------|
E|---------------------|-8------------|

00:00 / 00:00
Outros vídeos desta música
Repetir
Outros vídeos desta música
Compositor não encontrado.
Colaboração e revisão:
  • Helon Oliveira
5.621 exibições
    • ½ Tom
    • A
    • Bb
    • B
    • C
    • Db
    • D
    • Eb
    • E
    • F
    • F#
    • G
    • Ab
  • Adicionar à lista

    0 comentários

    Ver todos os comentários

    Entre para oCifra Club PRO

    Tenha acesso a benefícios exclusivos no App e no Site

    • Chega de anúncios

    • Prioridade de compra em lançamentos

    • Mais recursos no app do Afinador

    • Atendimento Prioritário

    • Descontos nos produtos Cifra Club

    • Ajude a produzir mais conteúdo

    00:00 / 00:00

    Cifra Club Pro

    Aproveite o Cifra Club com benefícios exclusivos e sem anúncios
    Cifra Club Pro
    Aproveite o Cifra Club com benefícios exclusivos e sem anúncios
    OK