Cifra Club

Black Friday Cifra Club

A Igreja Universal

Harpa Cristã

Cifra: Principal (violão e guitarra)
tom: A
E|------------------------------8---|-4----------------------------4---|
B|-------------4----4---0--4----4---|-6---6-4-----4----4---0--4----4---|
G|-------------5----5---7--5--------|-----6-5-----5----5---7--5--------|
D|-------------6----6---6--6----6---|-6---6-6-----6----6---6--6----6---|
A|----------------------------------|-4---4----------------------------|
E|-------------4----4---4--4----4---|-------4-----4----4---4--4----8---|

E|-6---8-6----------------------8---|-4----------------------------4---|
B|-----4-4-----4----4---0--4----4---|-6---6-4-----4----6---6--4--------|
G|-8-----------5----5---7--5--------|-----6-5----------6---6--5----5---|
D|-5---6-5-----6----6---6--6----6---|-6---6-6-----6----6---6--6----6---|
A|-------6--------------------------|-4---4------------4---4-------8---|
E|-6---4------------4---4--4----4---|-------4-----8--------------------|

E|-8---6-4-----11---8---7--8----4---|-4-----------4--------4--6----6---|
B|-4----------------4------4----4---|-6---6-4----------8---4-------4---|
G|-----6-5-----8--------7-----------|-----6-5-----5-----------6--------|
D|-6---5-6----------6---6--6----6---|-6---6-6-----6----8---6--5----5---|
A|-6---6-------11-------------------|-4---4-------8----11--8--6----4---|
E|-------4-----8----4---4--4----8---|-------4----------13--------------|

E|-4---8-6-----11---8---7--8----4---|-4-----------4-----------8--------|
B|-4---4-4----------4------4----4---|-4---6-4----------8---9-------11--|
G|-------------8--------7-----------|-----6-5-----5-----------8----8---|
D|-6---6-5----------6---6--6----6---|-6---6-6-----6----8---10------11--|
A|-------6-----11-------------------|-4---4-------8----11--11-11-------|
E|-8---4-------8----4---4--4----8---|-------4----------13--13-11---9---|

E|-----3-4--------------------------|
B|-9---2-1--------------------------|
G|-8---3-1--------------------------|
D|-10--1----------------------------|
A|----------------------------------|
E|-11----4--------------------------|

00:00 / 00:00
Outros vídeos desta música
Repetir
Outros vídeos desta música
Compositor não encontrado.
Colaboração e revisão:
  • Helon Oliveira
6.645 exibições
    • ½ Tom
    • A
    • Bb
    • B
    • C
    • Db
    • D
    • Eb
    • E
    • F
    • F#
    • G
    • Ab
  • Adicionar à lista

    0 comentários

    Ver todos os comentários

    Entre para oCifra Club PRO

    Tenha acesso a benefícios exclusivos no App e no Site

    • Chega de anúncios

    • Prioridade de compra em lançamentos

    • Mais recursos no app do Afinador

    • Atendimento Prioritário

    • Descontos nos produtos Cifra Club

    • Ajude a produzir mais conteúdo

    00:00 / 00:00

    Cifra Club Pro

    Aproveite o Cifra Club com benefícios exclusivos e sem anúncios
    Cifra Club Pro
    Aproveite o Cifra Club com benefícios exclusivos e sem anúncios
    OK