Cifra Club

Black Friday Cifra Club

A Ovelha Perdida

Harpa Cristã

Cifra: Principal (violão e guitarra)
tom: A
E|-----------------3-3--5-|-3----2---3--5---4-5--7-|-----------------7--7---8--|
B|----------3--3---3-3--3-|-3----3---3--3---3-3--7-|-8---------------8--8---8--|
G|----------4--4---4-4--5-|-4----2---4--5---4-5--7-|-7--------7--7---7--7---9--|
D|----------5--5---5-5--5-|-0----0---0--0---0-0--0-|-9--------9--9-------------|
A|------------------------|------------------------|-10-------10-10--10-10--10-|
E|------------------------|------------------------|---------------------------|

E|-0----0---0--5-----0----|-------------8---8-7--7-|-5---5-3--3--0---0-5--3-|
B|-12---10--10-7---7-8--5-|-------------------3--3-|-3---3-3--3--2---2-2--2-|
G|-7--------12-7---7----6-|-7--------7--7---7-0--0-|-5---5-4--4--2---2----2-|
D|------10---------7-7--5-|-0--------0--0---0-0--0-|-0---0-5--5--------2----|
A|-------------5---5-0----|-9--------9--9---9------|-----------------0-0--0-|
E|-8----8---9-----------5-|------------------------|------------------------|

E|-2----0---------------|-----3-3--5--3----2---|-----5-5--7--5----3---|
B|-3----2------3--------|-3---3-3--3--3----3---|-3---3-3--3--3----3---|
G|-2----0-----------5---|-4---4-4--5--4----2---|-5---5-5-----5----4---|
D|-------------4--------|-5---5-5--5--0----0---|-4---4-0--0--5----5---|
A|-0----0------5--------|----------------------|----------------------|
E|----------------------|-3--------------------|------------------3---|

E|-7---8--10--7--8------7------|-------------7---10-8--5-|-3---3-2--5--3--------|
B|-8---10-12--8--10--10-----0--|-10----------8---6--5--5-|-3---3-3--3--3--------|
G|-7---7--7---7--7---7--7---12-|-11----------7---0--0--5-|-4---4-2--5--4--------|
D|--------------------------12-|-12--------------9-------|-0---0-0--0--5--------|
A|-10--10-10--10-9---9--10--10-|-------------10----------|----------------------|
E|-----------------------------|-10-----------------8--8-|----------------------|

00:00 / 00:00
Outros vídeos desta música
Repetir
Outros vídeos desta música
Compositor não encontrado.
Colaboração e revisão:
  • Helon Oliveira
53.931 exibições
  • Simplificar cifra
    • ½ Tom
    • A
    • Bb
    • B
    • C
    • Db
    • D
    • Eb
    • E
    • F
    • F#
    • G
    • Ab
  • Adicionar à lista

    0 comentários

    Ver todos os comentários

    Entre para oCifra Club PRO

    Tenha acesso a benefícios exclusivos no App e no Site

    • Chega de anúncios

    • Prioridade de compra em lançamentos

    • Mais recursos no app do Afinador

    • Atendimento Prioritário

    • Descontos nos produtos Cifra Club

    • Ajude a produzir mais conteúdo

    00:00 / 00:00

    Cifra Club Pro

    Aproveite o Cifra Club com benefícios exclusivos e sem anúncios
    Cifra Club Pro
    Aproveite o Cifra Club com benefícios exclusivos e sem anúncios
    OK