Cifra Club

Black Friday Cifra Club

Autor da Vida

Harpa Cristã

Cifra: Principal (violão e guitarra)
tom: F
E|---------1-3-|-5----6--3-5-|-1-------------|-8----10----8-|-5----1--1-1-|
B|------1------|-1-----------|-1-------10-11-|-10------11---|-4-------1-1-|
G|-------------|---------3---|-2----10-10-12-|-10-----------|---------2-2-|
D|-------------|-------------|-3-------------|--------------|-3-------3---|
A|-------------|-3-------3---|-3-------8-----|-8------------|-------------|
E|-------------|-1-----------|-1-------------|---------8----|-1-------1---|

E|-10---10---10-|------5--8--8--|-0-------8--8--|-5----1--1-1-|-10---10---10-|
B|-6---------11-|---------10-10-|-11------11-11-|-1----1--1-1-|-6---------11-|
G|-----------10-|---------10-10-|-12---12-12-12-|---------2-2-|-----------10-|
D|-8-------8----|-3-------------|---------14-14-|---------3---|-8-------8----|
A|--------------|-3-------8-----|---------------|-3-----------|--------------|
E|-6-------6----|-1-------------|-8-------8-----|-1-------1---|-6-------6----|

E|---------8--8--|-0-------8--8--|-1--------|
B|------10-10-10-|-11---8--8--11-|-1--------|
G|---------10-10-|-12------9--12-|-2--------|
D|---------------|---------10-14-|-3--------|
A|---------8-----|---------------|-3--------|
E|-1-------------|-8-------------|-1--------|

00:00 / 00:00
Outros vídeos desta música
Repetir
Outros vídeos desta música
Compositor não encontrado.
Colaboração e revisão:
  • Helon Oliveira
3.675 exibições
    • ½ Tom
    • A
    • Bb
    • B
    • C
    • Db
    • D
    • Eb
    • E
    • F
    • F#
    • G
    • Ab
  • Adicionar à lista

    0 comentários

    Ver todos os comentários

    Entre para oCifra Club PRO

    Tenha acesso a benefícios exclusivos no App e no Site

    • Chega de anúncios

    • Prioridade de compra em lançamentos

    • Mais recursos no app do Afinador

    • Atendimento Prioritário

    • Descontos nos produtos Cifra Club

    • Ajude a produzir mais conteúdo

    00:00 / 00:00

    Cifra Club Pro

    Aproveite o Cifra Club com benefícios exclusivos e sem anúncios
    Cifra Club Pro
    Aproveite o Cifra Club com benefícios exclusivos e sem anúncios
    OK