Cifra Club

Black Friday Cifra Club

Consagração

Harpa Cristã

Cifra: Principal (violão e guitarra)
tom: C
E|-----------|-5-5-5------|-5-5-5------|---5-8------|-0-5-0-----|-5-5-5----8-|
B|-----------|-6-6-6------|-6-6-6------|-6-6-6----6-|-8-6-8-----|-6-6-6----6-|
G|---------5-|-5-5-5----5-|-5-5-5----5-|-5-5--------|-5-5-5---5-|-5-5-5----8-|
D|---------7-|----------7-|----------7-|-7---7----7-|---------7-|------------|
A|---------8-|-8-8-8----8-|-8-8-8----8-|-8-8-8----8-|---------8-|-8-8-8----8-|
E|-----------|------------|------------|------------|-8-8-8-----|------------|

E|-8-6-6-----|-----5----3-|----------|
B|-6-6-6---8-|-6-6-6----5-|-6--------|
G|-8-7-7---7-|-5-5-5----3-|----------|
D|---------8-|-7-7--------|-7--------|
A|-----------|----------3-|-8--------|
E|-6-6-6---6-|-8-8-8------|----------|

00:00 / 00:00
Outros vídeos desta música
Repetir
Outros vídeos desta música
Compositor não encontrado.
Colaboração e revisão:
  • Helon Oliveira
17.538 exibições
    • ½ Tom
    • A
    • Bb
    • B
    • C
    • Db
    • D
    • Eb
    • E
    • F
    • F#
    • G
    • Ab
  • Adicionar à lista

    0 comentários

    Ver todos os comentários

    Entre para oCifra Club PRO

    Tenha acesso a benefícios exclusivos no App e no Site

    • Chega de anúncios

    • Prioridade de compra em lançamentos

    • Mais recursos no app do Afinador

    • Atendimento Prioritário

    • Descontos nos produtos Cifra Club

    • Ajude a produzir mais conteúdo

    00:00 / 00:00

    Cifra Club Pro

    Aproveite o Cifra Club com benefícios exclusivos e sem anúncios
    Cifra Club Pro
    Aproveite o Cifra Club com benefícios exclusivos e sem anúncios
    OK