Cifra Club

Em Sua Graça

Harpa Cristã

Cifra: Principal (violão e guitarra)
Tom: G
E|-8-6-4----------------|----------------------8--|-8-6-4----------------|
B|-4-----4--6--9-8-7-8--|-4-3-4-6-5-6-8--9--11-4--|-4-----4--6--9-8-7-8--|
G|---6-5----7--6-6-6-6--|-5-4-5-6-6-6-8--8--8--5--|---6-5----7--6-6-6-6--|
D|-6-6-6-6--6--8-8-8-8--|-6-6-6-6-6-8-11-11-11-6--|-6-6-6-6--6--8-8-8-8--|
A|-------------------6--|-------4-4------8--10----|-------------------6--|
E|-4-4-4-8--7--6-6-6----|-4-4-4-----6-11----------|-4-4-4-8--7--6-6-6----|

E|-11-10-9-1--3--4--------|----------------------|
B|-9--9--6-2--2--1--------|----------------------|
G|---------3--3--1--------|----------------------|
D|-6--6--6-1--1-----------|----------------------|
A|----8-------------------|----------------------|
E|-8-----6-------4--------|----------------------|
exibições 637
Acordes para:
    Composição: Kenneth L. Cox Colaboração e revisão:
    • Helon Oliveira

    0 comentários

    mostrar mais comentários

    Conseguiu tocar?

    0 tocaram 0 ainda não

    Grave um vídeo tocando Em Sua Graça e mande pra gente!

    00:00 / 00:00
    outros vídeos desta música
    repetir qualidade Automático
    Outros vídeos desta música
    00:00 / 00:00
    Automático
    OK