Cifra Club

Lava-me, Ó Deus

Harpa Cristã

Cifra: Principal (violão e guitarra)
tom: Bb
E|--------------6-8-10----|-8-8-6---------------------|--------------6-8-10-11--|
B|-3-4-5-6-8-10--------8--|-----3-10-8-----8-----8--6-|-3-4-5-6-8-10-----6--8---|
G|-3-5-6-7-7-7--7-7-7--8--|-8-8-3-8--8--8--8--8--8--7-|-3-5-6-7-7-7--7-8--------|
D|-3---5------------8--8--|-7-7-3-10-10-10----10----8-|-3---5------------8--8---|
A|---8---8-8-8--8-8----6--|-8-8---8--8--12-12-12-12---|---8---8-8-8--8-8--------|
E|-6-6-6-6-6-6--6-6-6-----|-------------13-13-13-13-6-|-6-6-6-6-6-6--6-6-6--11--|

E|-------------11-10-8-3-5-6--|-6-6--6-6-6-6-6-5-3-5--|
B|-8--10-8-------------5-4-3--|-3-3--3-3-3-3-4-4-4-4--|
G|-8--10-8--10-10-10-9-3-5-3--|------------------5-5--|
D|-8--8--8--8--7--8--8---3----|-3-3--3-3-3-3-3-3---3--|
A|---------------------3------|--------------3-3-3----|
E|-11-11-11-10-8--6--8-----6--|-6-6--6-6-6-6----------|

E|-6-6--6-6-6-6-8--8--9--10--|--------------6-8-10-11-|
B|-3-3--3-3-3-3-8--8--8--7---|-3-4-5-6-8-10-----6--8--|
G|-3-3--3-3-3-3-------0------|-3-5-6-7-7-7--7-8-------|
D|-5-5--5-3-3-3-8--------7---|-3---5------------8--8--|
A|-----------------12--------|---8---8-8-8--8-8-------|
E|--------------11-11-11-10--|-6-6-6-6-6-6--6-6-6--11-|

E|-------------11-10-8-3-5-6--|-----------------------|
B|-8--10-8-------------5-4-3--|-----------------------|
G|-8--10-8--10-10-10-9-3-5-3--|-----------------------|
D|-8--8--8--8--7--8--8---3----|-----------------------|
A|---------------------3------|-----------------------|
E|-11-11-11-10-8--6--8-----6--|-----------------------|

00:00 / 00:00
Outros vídeos desta música
Repetir
Outros vídeos desta música
Compositor não encontrado.
Colaboração e revisão:
  • Helon Oliveira
1.188 exibições
    • ½ Tom
    • A
    • Bb
    • B
    • C
    • Db
    • D
    • Eb
    • E
    • F
    • F#
    • G
    • Ab
  • Adicionar à lista

    0 comentários

    Ver todos os comentários

    Entre para oCifra Club PRO

    Tenha acesso a benefícios exclusivos no App e no Site

    • Chega de anúncios

    • Prioridade de compra em lançamentos

    • Mais recursos no app do Afinador

    • Atendimento Prioritário

    • Descontos nos produtos Cifra Club

    • Ajude a produzir mais conteúdo

    00:00 / 00:00

    Cifra Club Pro

    Aproveite o Cifra Club com benefícios exclusivos e sem anúncios
    Cifra Club Pro
    Aproveite o Cifra Club com benefícios exclusivos e sem anúncios
    OK