Cifra Club

Luz Após Trevas

Harpa Cristã

Cifra: Principal (violão e guitarra)
Selo Cifra Club: esta cifra foi revisada para atender aos critérios oficiais da nossa Equipe de Qualidade.
tom: G
E|-6----------|-6-5-6----|-8----------|----------|-----------|-----------|
B|-8---8---9--|-8-7-8----|-8---8---11-|-9--------|-9---6---8-|-9--8-9----|
G|-----8---10-|-8---8----|-9---9---12-|-10-------|-10--7---8-|-10-9-10---|
D|-8---8---8--|----------|-----10--10-|-10-------|-8---8---8-|-8----8----|
A|-6---6---6--|-6---6----|------------|-8--------|-----------|-----------|
E|------------|----------|-8---8---8--|----------|-6---6---6-|-6----6----|

E|-6---------|----------|-6----------|-6-5-6----|-11--10--8--|----------|
B|-----6---9-|-8--------|-8---8---9--|-8-7-8----|------------|-11-------|
G|-7---7---7-|-8--------|-8---8---10-|-8---8----|-8---8---8--|-8--------|
D|-----8---8-|-8--------|-----8---8--|----------|-10--8------|----------|
A|-8---------|-6--------|-6---6---6--|-6---6----|---------11-|-10-------|
E|-6---6---6-|----------|------------|----------|-11--11--11-|-11-------|

E|-8---10--11-|-11---------|-3---4---1-|----------|----------|
B|-----9---9--|----11-11---|-4---3---3-|----------|----------|
G|-8----------|-------0----|-3-------1-|-0--------|----------|
D|-----8---10-|-8-----13---|-----3-----|-13-------|----------|
A|-11--8------|------------|---------1-|----------|----------|
E|---------11-|-11----11---|-6---6-----|-11-------|----------|

Outros vídeos desta música
    711 exibições
      • ½ Tom
      • A
      • Bb
      • B
      • C
      • Db
      • D
      • Eb
      • E
      • F
      • F#
      • G
      • Ab
    • Adicionar à lista

    Afinação da cifra

    Afinador online

      0 comentários

      Ver todos os comentários

      Entre para o Cifra Club PRO

      Tenha acesso a benefícios exclusivos no App e no Site

      • Chega de anúncios

      • Badges exclusivas

      • Mais recursos no app do Afinador

      • Atendimento Prioritário

      • Aumente seu limite de lista

      • Ajude a produzir mais conteúdo

      Cifra Club Pro

      Aproveite o Cifra Club com benefícios exclusivos e sem anúncios
      Cifra Club Pro
      Aproveite o Cifra Club com benefícios exclusivos e sem anúncios
      Ops (: Contenido disponible sólo en portugués.
      OK