Cifra Club

Aprenda

Mais Um Templo

Harpa Cristã

Cifra: Principal (violão e guitarra)
Tom: G
E|-------3---3-7---7-10--|-7--10-7---------3-7-3----|-------3---3-7---7-10--|
B|-3-0-3---3---0-8-0-----|-8--8--8--8------3-3-3-3--|-3-0-3---3---0-8-0-----|
G|-------0---0---0---7---|-7--0--7--7------4---4-4--|-------0---0---0---7---|
D|-0---0---0-------------|----9-----9------------5--|-0---0---0-------------|
A|-----------------------|-10----10-10--------------|-----------------------|
E|---7-------------------|-----------------3-3-3-3--|---7-------------------|

E|-7--10-7--5-----3--------|-5---7-3-----5---7-3--|-----7-10--10-10-----10------|
B|-8--8--8--7--3--3--------|-------0-----------0--|-3-8---7---8--7---------8-10-|
G|-7--0--7--5--5--4--------|-5-7-7-0-----5-7-7-0--|---0-------0-----7-9-11------|
D|----9--------0-----------|-4---4-------0---0----|-0---9-10--9--0--------------|
A|-10----10-5--------------|-5---5-------9---9----|-------12-----12-------------|
E|----------------3--------|-------3-----------3--|-----------------------------|

E|-7--10-7---------3----3----|---0-8-7--5--3--------|
B|----8--8--8------3-12-3-3--|-5-8-5-3--3--3--------|
G|-7-----7--7------4-12-4-4--|-5-0-0-0--5--4--------|
D|----9-----9--------12---5--|-5-----0--0-----------|
A|-10----10-10---------------|----------------------|
E|-----------------3----3-3--|-8-8-8-------3--------|
Colaboração e revisão:
  • Helon Oliveira
451 exibições
    • ½ Tom
    • A
    • Bb
    • B
    • C
    • Db
    • D
    • Eb
    • E
    • F
    • F#
    • G
    • Ab
  • Adicionar à lista

    0 comentários

    Mostrar mais comentários
    00:00 / 00:00
    outros vídeos desta música
    repetir qualidade Automático
    Outros vídeos desta música
    00:00 / 00:00
    Automático

    Cifra Club Pro

    Aproveite o Cifra Club com benefícios exclusivos e sem anúncios
    7 dias grátis
    Cifra Club Pro
    Aproveite o Cifra Club com benefícios exclusivos e sem anúncios
    7 dias grátis
    OK