Cifra Club

Meu Brasil

Harpa Cristã

Cifra: Principal (violão e guitarra)
Selo Cifra Club: esta cifra foi revisada para atender aos critérios oficiais da nossa Equipe de Qualidade.
tom: Ab
E|-------------8-6-|-4-4-4-4-6-4-4---|---------4---4-6-|-8--8--8-----8--11-11-8--|
B|-------------4---|-------4-6-6-6-6-|-4-----------4-4-|----------11-------9--9--|
G|---------------6-|-5-5-5---6-6-6-6-|-5-------5-----0-|-8--8--8--8--8--8-----8--|
D|-------------6-6-|-------6-------6-|-6-----------6---|----------------10-10----|
A|-----------------|-6-6-6---4-4-4-4-|---------6---3-6-|-11-11-11-11-11-11-11-11-|
E|-------------4-4-|-4-4-4-8---------|-4-------4-------|-------------------------|

E|-6-----------8-----|-4-4-4-4-6-4-4---|-----------------|-4-4-4-6-8----6-6-|
B|-8-----------9--11-|-4-4-4-4-6-6-6-6-|-4-----------4-4-|-----4-6---9--8-8-|
G|-8-----------8--8--|-5-5-5---6-6-6-6-|-5-------5---5-5-|-5-5-----8-8--6-6-|
D|----------------11-|-------6-------6-|-6-------6---6-6-|-----6-6-6-10-----|
A|-6-----------------|---------4-4-4-4-|---------6-------|-6-6-----6-6--6-6-|
E|-------------11-11-|-4-4-4-8---------|-4-------4---4-4-|-4-4-8-9----------|

E|-4-----------11-9--|-8-------------8-6-|-4-----------6-8-|
B|-------------13-11-|-9-----------------|---------------4-|
G|-5-----------------|-----8--8--8---8-6-|-5---6-6-5---6---|
D|-------------------|-------------------|-------------6-6-|
A|-------------------|-----11-11-11------|-----8-8-6-------|
E|-4-----------------|-------------------|-----4-4-4---4-4-|

E|-9--9--9--9--8--11-11-8--|---------------11-9--|-8-------------------|
B|-------------------9--9--|-11------------13-11-|-9-------------11-9--|
G|-10-10-10-10-8--8-----8--|-12------------------|-----8--8--8---12-11-|
D|----------------10-10----|-13--13-13-13--------|---------------------|
A|-11-11-11-11-11-11-11-11-|---------------------|-----11-11-11--------|
E|-9--9--9--9--------------|-11--11-11-11--------|---------------------|

E|-9---------9-8-6-|----------6--8-----6-6-|-4------------|
B|-6---------6-6-6-|-9--9--9-----9--9--8-8-|-----6-6-4----|
G|-------------6-6-|-8--8--8--8--8-----6-6-|-5---6-6-5----|
D|-----6-6-6-------|-10-10-10-11----10-----|--------------|
A|-----------------|-6--6--6--6-----6--6-6-|--------------|
E|-----9-9-9---9-9-|-------------11--------|--------------|

Outros vídeos desta música
    2.763 exibições
      • ½ Tom
      • A
      • Bb
      • B
      • C
      • Db
      • D
      • Eb
      • E
      • F
      • F#
      • G
      • Ab
    • Adicionar à lista

    Afinação da cifra

    Afinador online

      0 comentários

      Ver todos os comentários

      Entre para o Cifra Club PRO

      Tenha acesso a benefícios exclusivos no App e no Site

      • Chega de anúncios

      • Badges exclusivas

      • Mais recursos no app do Afinador

      • Atendimento Prioritário

      • Aumente seu limite de lista

      • Ajude a produzir mais conteúdo

      Cifra Club Pro

      Aproveite o Cifra Club com benefícios exclusivos e sem anúncios
      Cifra Club Pro
      Aproveite o Cifra Club com benefícios exclusivos e sem anúncios
      Ops (: Contenido disponible sólo en portugués.
      OK