Cifra Club

Nós Somos Teus

Harpa Cristã

Cifra: Principal
exibições 297
Tom: A
E|---------------|-4----6--8----|-8-----------4-|-6------------|---------------|
B|-4-------6---4-|-4----4-------|---------11--3-|-4------------|-4-------6---4-|
G|-5-------6---5-|------0--8----|-8-------8---3-|-0------------|-5-------6---5-|
D|-6-------6---6-|-6------------|---------8---3-|--------------|-6-------6---6-|
A|---------------|-4----6--11---|-11------10----|-6------------|---------------|
E|-4-------4---4-|--------------|---------------|--------------|---------------|

E|-4----6--8----|----------------|--------------|-9-------9---9--|-9----8--8----|
B|-4----4-------|-11------9---8--|-9------------|-9-------9---9--|-9----9--9----|
G|------0--8----|-8-------8---8--|-8------------|-10------10--10-|-10---8--8----|
D|-6------------|-11------10--11-|-10-----------|----------------|--------------|
A|------6--11---|----------------|-11-----------|-11------11--11-|-11---11-11---|
E|-8------------|-11------11--11-|--------------|----------------|--------------|

E|-6-------6---6-|-6----4--4----|---------------|--------------|-6-------4---3-|
B|-8-------8---8-|-4----4--4----|-6-------6---6-|-9------------|-6-------4---4-|
G|-6-------6---6-|-6----5--5----|-6-------6---6-|-8------------|-6-------5---3-|
D|---------------|------6--6----|-6-------6---6-|-6------------|---------------|
A|-6-------6---6-|-6------------|---------------|--------------|---------6---6-|
E|---------------|--------------|-9-------9---9-|-8------------|-6-------------|

E|-4------------|
B|-4------------|
G|-5------------|
D|--------------|
A|--------------|
E|-4------------|
Acordes para:
    Colaboração e revisão:
    • Helon Oliveira

    0 comentários

      mostrar mais comentários

      Conseguiu tocar?

      0tocaram0ainda não

      Grave um vídeo tocando Nós Somos Teus e mande pra gente!

      00:00 / 00:00
      outros vídeos desta música
      repetirqualidadeautomática
      Outro vídeos desta música
        00:00 / 00:00
        automática
        OK