Cifra Club

O Cego de Jericó

Harpa Cristã

Cifra: Principal
exibições 19.033
Tom: A
E|---------------|------0--------|---------------|-5----7--5-3-|-3---------3-|
B|---------0--0--|-12---13-12-10-|-10---------7--|-7----7--3-3-|-3----3--3-3-|
G|------0-----12-|-12---12-12-11-|-11---7--7--7--|-7----7--5-4-|-4----4--4-4-|
D|------12-12-12-|-12------12-12-|-12---7--7--10-|------0--0-5-|-5----0----0-|
A|---------------|-10---10-10----|---------------|-5-----------|-------------|
E|---------10-10-|------------10-|-10---10-10-10-|-------------|---------7---|

E|-7----10-10-8-|-8----7--7-8-|-7----3--5-|-3----3--3-7-|-10---7--7-5-|
B|-8----8--6--5-|-5----3--3-5-|-3----3--3-|-3----3--3-3-|-8----8--8-7-|
G|-7----0--0--0-|-0---------0-|-0----4--5-|-4----4--4-4-|-0----0--0-7-|
D|------9--9----|------5--5---|-0----0--0-|-5----5--5-5-|-9----9--9-0-|
A|-10-----------|-------------|-----------|-------------|-------------|
E|------------8-|-8----3--3-8-|-----------|-------------|-------------|

E|-5----5--5-7-|-8----10-8-7-|-7------------|-7----10-10-8-|-8----7--7-0--|
B|-7----7--7-8-|-7----7--7-3-|-3----0--0-8--|-8----8--6--5-|-5----3--3-13-|
G|-7----7--7-7-|-7----7--7---|------7--7-7--|-7----0--0--0-|-0---------0--|
D|-0----0--0-0-|-0----0--0-5-|-5----0----9--|------9--9----|------5--5----|
A|-------------|-------------|--------------|-10-----------|--------------|
E|-------------|-----------3-|-3-------7-10-|------------8-|-8----3--3-8--|

E|------------3-|----------|
B|-12---0--10-0-|----------|
G|-0----12----0-|----------|
D|-12---12-10---|----------|
A|---------12---|----------|
E|-10---10-10-3-|----------|
Acordes para:
    Colaboração e revisão:
    • Helon Oliveira

    0 comentários

      mostrar mais comentários

      Conseguiu tocar?

      0tocaram0ainda não

      Grave um vídeo tocando O Cego de Jericó e mande pra gente!

      00:00 / 00:00
      outros vídeos desta música
      repetirqualidadeautomática
      Outro vídeos desta música
        00:00 / 00:00
        automática
        OK