Cifra Club

Aprenda

Paz, Doce Paz

Harpa Cristã

Cifra: Principal (violão e guitarra)
Tom: Am
E|-3-------3---3-|-3-----------3-|-5---5---5------|-------------0--|
B|-5-------6---6-|-5-----------5-|-6---6---6---8--|-8--------------|
G|-5-------4-5-7-|-5-----------5-|-5---7---7---10-|-10------9---12-|
D|---------5---5-|---------------|-------------12-|-10----------10-|
A|-3-------------|-3-----------3-|-8---5----------|-------------13-|
E|---------------|---------------|-------8-7---7--|-8--------------|

E|---------10---|-12--10---------|-0-------3---1-|-0------------|-1------------|
B|-13-----------|---------13--10-|-8-------3-----|-1------------|-1------------|
G|-10------11---|-12--12--12--10-|-0-------4-----|-0------------|-2------------|
D|-10------10---|-10------10--10-|-10------------|--------------|-3------------|
A|-12------11---|-10--14---------|---------------|-3------------|--------------|
E|--------------|-----13--12--13-|---------3-----|--------------|--------------|

E|-0------------|--------------|
B|-1------------|--------------|
G|-0------------|--------------|
D|--------------|--------------|
A|-3------------|--------------|
E|--------------|--------------|
Colaboração e revisão:
  • Helon Oliveira
780 exibições
    • ½ Tom
    • Am
    • Bbm
    • Bm
    • Cm
    • C#m
    • Dm
    • Ebm
    • Em
    • Fm
    • F#m
    • Gm
    • G#m
  • Adicionar à lista

    0 comentários

    Mostrar mais comentários
    00:00 / 00:00
    outros vídeos desta música
    repetir qualidade Automático
    Outros vídeos desta música
    00:00 / 00:00
    Automático
    OK