Cifra Club

Aprenda

Plena Graça

Harpa Cristã

Cifra: Principal (violão e guitarra)
Tom: D
E|-7--------7--6--7-8--7-|--------------|-8------8--7-8--10-8--|---------7----|
B|-----------------------|-----7---10---|-10-----10-9-10-12-10-|-----8--------|
G|-7--------7--6--7-9--7-|-7-------5----|-7--7-7-7--7----7-----|-7-------7----|
D|-----------------------|-7---7---0----|-0--0-0-0--0----0-----|-9---9--------|
A|-10-10-10-10-10---10---|-9-------9----|----------------------|-10--10--10---|
E|-----------------------|-----10-------|----------------------|--------------|

E|-7--------------0----0--|-----3-7-10--8--|----------------|-3------------|
B|----------8--10-8-7-----|-3---3----------|-12------10-----|-0------------|
G|-7--7--7--7-------0-----|-4---4---7---9--|-12--0----------|-0------------|
D|----------9--10---12-10-|-5---5----------|-9---12--11--10-|--------------|
A|-10-10-10-10------------|---------11--12-|---------7---9--|--------------|
E|-------------8----8-----|-3-------7---8--|-10------10-----|-3------------|
Colaboração e revisão:
  • Helon Oliveira
1.442 exibições
    • ½ Tom
    • A
    • Bb
    • B
    • C
    • Db
    • D
    • Eb
    • E
    • F
    • F#
    • G
    • Ab
  • Adicionar à lista

    0 comentários

    Mostrar mais comentários
    00:00 / 00:00
    outros vídeos desta música
    repetir qualidade Automático
    Outros vídeos desta música
    00:00 / 00:00
    Automático

    Cifra Club Pro

    Aproveite o Cifra Club com benefícios exclusivos e sem anúncios
    7 dias grátis
    Cifra Club Pro
    Aproveite o Cifra Club com benefícios exclusivos e sem anúncios
    7 dias grátis
    OK