Cifra Club

Aprenda

Qual o Preço do Perdão?

Harpa Cristã

Cifra: Principal (violão e guitarra)
Tom: G
E|----------------|-----10-------|-3-3-3-5-7---7--7--|-5-------3----|
B|-0---0---0---10-|-12--12--12---|-3-3-3-3-8---8--8--|-7------------|
G|-12--12--12--11-|-12------12---|-4-4-4-5-7---7--7--|-5-------4----|
D|-12--12--12--12-|-12--12--12---|-5-5-5-5-----------|--------------|
A|-10--10--10-----|-10--10--10---|---------10--10-10-|-5------------|
E|-------------10-|--------------|-------------------|---------3----|

E|-3---3---3------|-----10-------|-3-3-3-5-----------|---------3----|
B|-3---3---3---10-|-12--12--12---|-3-3-3-3-12--12-12-|-10-----------|
G|-4---4---4---11-|-12------12---|-4-4-4-5-12--12-12-|-11------4----|
D|-5---5---5---12-|-12--12--12---|-5-5-5-5-12--12-12-|-10-----------|
A|----------------|-10--10--10---|---------10--10-10-|--------------|
E|-------------10-|--------------|-------------------|-10------3----|

E|-10------7---5-|-7---10--7----|----------------|-------------10-|
B|-8-------8---7-|-8---8---8----|-10------10--0--|-10--10--12--0--|
G|-0-------7---7-|-7---0---7----|-11------11--12-|-11--11--12-----|
D|-9-----------0-|-----9--------|-10------10--0--|-12--12--12-----|
A|---------10----|-10------10---|----------------|---------10-----|
E|---------------|--------------|-10------10-----|-10--10---------|

E|-10-------------|-7---10--7----|-------------7---7-7-|-5-------3----|
B|-0-------12--10-|-8---8---8----|-8--8--8--10-8---3-3-|-7------------|
G|-12------12--11-|-7---0---7----|-7--7--7--7--7-------|-5-------4----|
D|---------12--12-|-----9--------|-9--9--9--10---------|-0------------|
A|-10------10-----|-10------10---|-10-10-10-10-10------|--------------|
E|-------------10-|--------------|-----------------3-3-|---------3----|

E|--------------|
B|--------------|
G|--------------|
D|--------------|
A|--------------|
E|--------------|
Composição de Paulo Leivas Macalão
Colaboração e revisão:
  • Helon Oliveira
4.282 exibições
    • ½ Tom
    • A
    • Bb
    • B
    • C
    • Db
    • D
    • Eb
    • E
    • F
    • F#
    • G
    • Ab
  • Adicionar à lista

    0 comentários

    Mostrar mais comentários
    00:00 / 00:00
    outros vídeos desta música
    repetir qualidade Automático
    Outros vídeos desta música
    00:00 / 00:00
    Automático

    Cifra Club Pro

    Aproveite o Cifra Club com benefícios exclusivos e sem anúncios
    7 dias grátis
    Cifra Club Pro
    Aproveite o Cifra Club com benefícios exclusivos e sem anúncios
    7 dias grátis
    OK