Cifra Club

Servir a Jesus

Harpa Cristã

Cifra: Principal
exibições 2.011
Tom: A
E|-----------------7-7--|-3-2-3-5--3--0--------|-----------0------8--8---|
B|-3-2-3-5-3-2-3---3-3--|-3-3-3-3--3-----------|-5-4-5-8-7---------------|
G|-4-3-4-5-4-3-4--------|-4-4-4-4--4--5--------|-5-5-5-5-5-0--7----------|
D|-5---5-5-5---5---5-5--|-5-5-5-5--5-----------|-7-7-7-7-7-10-10--12-12--|
A|----------------------|----------------------|-------0-0-0--9---9--9---|
E|-3-3-3-3-3-3-3---3-3--|-------------8--------|-8-8-8--------10--10-10--|

E|----0---------0--7--------|-------0---------7--7---|-7--6--7--8---7--12-------|
B|-7--------7---13-3--------|-3-2-3---3-2-0----------|-8--8--8--8------8--------|
G|-------7------------------|-4-3-4-5-4-3-0---7--7---|-7--6--7--9---10----------|
D|-10-10-10-10--0--5--------|-5-5-5-5-5-5-12---------|--------------12-10-------|
A|-12-12-12-12--9-----------|-----------------10-10--|-10-10-10-10--10----------|
E|-10-10-10-10-----3--------|------------------------|-----------------8--------|

E|----------0--0--0--10--7--10--|-0-0-0-7--5--3--------|
B|-8--7--8--10-12-13-0------0---|-8-7-8-7--7-----------|
G|-9--8--9-----------12--7--12--|-6-6-6-7--5--4--------|
D|-10-10-10---------------------|-------0--0-----------|
A|----------12-11-12-----10-----|-7-7-7----------------|
E|-8--8--8--8--8--8--7---7--7---|-------------3--------|

E|-10--10-7------8---8---------|-0--0--0---------------10-10-----|
B|-8---8--8------7---7--10-----|-0--0--0--12-10----10------------|
G|-0---0--7------7---7--11-----|-12-12-12-12-12-12-11--11-11-----|
D|-9---9----------------12--10-|----------11-11-11-12------------|
A|--------10-------------------|----------0--0--0------12-12--13-|
E|---------------10--10-10-----|-12-12-12----------10--10-10-----|

E|-10--10-7------10--11-12--|----------7--5--3--------|
B|-0---0--8------8---8--8---|-8--7--8--7--7--0--------|
G|-12--12-7------0---0------|-9--9--9--7--5-----------|
D|----------------------10--|-11-11-11-0--0-----------|
A|-10--10-10----------------|-------------------------|
E|---------------7---7--8---|-12-12-12-------3--------|
Acordes para:
    Colaboração e revisão:
    • Helon Oliveira

    0 comentários

      mostrar mais comentários

      Conseguiu tocar?

      0tocaram0ainda não

      Grave um vídeo tocando Servir a Jesus e mande pra gente!

      00:00 / 00:00
      outros vídeos desta música
      repetirqualidadeautomática
      Outro vídeos desta música
        00:00 / 00:00
        automática
        OK