Cifra Club

Aprenda

Woman

Harry Styles

Cifra: Principal (violão e guitarra)
tom: F# (forma dos acordes no tom de F) Capotraste na 1ª casa
[Intro]

F

E|--------------------------------|--------------------------------|
B|--------------------------------|--------------------------------|
G|--------------------------------|--------------------------------|
D|-------------0------------------|-------------0------------------|
A|-------3------------------------|--------3-----------------------|
E|-1------------------------------|-1-----------------------------

 Dm7
E|--------------------------------|--------------------------------|
B|--------------------------------|--------------------------------|
G|--------------------------------|--------------------------------|
D|--------------------------------|--------------------------------|
A|------3-3-5---------x-3-3-5-----|--------3-5-------------3h5p3~--|
E|--------------------------------|--------------------------------|

[Verso 1]

F
I'm selfish, I know
                             C/E
I don't ever want to see you with him
    F
I'm selfish, I know
                                 C/E
I told you, but I know you never listen

[Pré-Refrão]

     Dm7               C                                Dm7
E|--8---5~------------------------------------------------5---8---5~--5-5-5---------------------|
B|-x-------6-8-8b10-r8~--8---8--8----8-8-8-----------6~----------------------8--8------8--------|
G|--------------------------------9~-------9--------------------------------------9------9------|
D|-------------------------------------------10-------------------------------------10-----10---|
A|----------------------------------------------------------------------------------------------|
E|----------------------------------------------------------------------------------------------|

Dm7                                          C
   I hope you can see, the shape that I'm in

While he's touching your skin
Dm7                                             C
   He's right where I should, where I should be

But you're making me bleed

[Refrão]

F
  Woman! Woman! (La La La La La)
Dm7
  W-Woman! Woman!
F
  Woman! Woman! (La La La La La)
Dm7
  W-Woman! Woman!

[Verso 2]

F
Tempted, you know
                          C/E
Apologies are never gonna fix this
F
  I'm empty, I know
                             C/E
Promises are broken like the stitches

[Pré-Refrão]

Dm7                                           C
   I hope you can see, the shape I've been in

While he's touching your skin
Dm7                                    C
This thing upon me, howls like a beast

You flower, you feast

[Solo]

    Fm                                D7sus4
E|-----------------8-----------------------------------------------------|
B|8b10---8b10r8-6-----5~--------6---8b10~~--10r8~------------------------|
G|------------------------5-5h7------------------------------------------|
D|-----------------------------------------------------------------------|
A|-----------------------------------------------------------------------|
E|-----------------------------------------------------------------------|

     Fm                                D7sus4
E|-----------------8-----------------------------------------------------|
B|8b10---8b10r8-6-----5~---------6---8b10~~--10r8~-----8b10r8-6-8--6-6---|
G|-------------------------5-5h7-----------------------------------------|
D|-----------------------------------------------------------------------|
A|-----------------------------------------------------------------------|
E|-----------------------------------------------------------------------|

[Refrão]

F
  Woman! Woman! (La La La La La)
Dm7
  W-Woman! Woman!
F
  Woman! Woman! (La La La La La)
Dm7
  W-Woman! Woman!

[Ponte] Dm7  C  Dm7  C  Dm7  C
        Dm7  C  Dm7  C  Dm7  C

[Final]

F
  Woman!
Composição de Alex Raymond Salibian / Harry Edward Styles / Jeffrey Nath Bhasker / Mitch Rowland / Ryan Thomas Nasci / Tyler Johnson
Colaboração e revisão:
  • Clara Muniz
  • Amanda Silva
12.825 exibições
    • ½ Tom
    • A
    • Bb
    • B
    • C
    • Db
    • D
    • Eb
    • E
    • F
    • F#
    • G
    • Ab
  • Adicionar à lista

    0 comentários

    Ver todos os comentários

    Conseguiu tocar?

    5 Tocaram 0 Ainda não

    Grave um vídeo tocando Woman e nos envie!

    00:00 / 00:00
    Outros vídeos desta música
    Repetir Qualidade Automático
    Outros vídeos desta música
    00:00 / 00:00
    Automático

    Cifra Club Pro

    Aproveite o Cifra Club com benefícios exclusivos e sem anúncios
    Cifra Club Pro
    Aproveite o Cifra Club com benefícios exclusivos e sem anúncios
    OK