Cifra Club

The Jesus Metal Explosion

HB

Cifra: Principal (violão e guitarra)
exibições 6.332
Tom: G
Início:

E|-17-17--15-15--13-13-12--10-10-10-10-10-10-------|
B|-------------------------------------------------|
G|-------------------------------------------------|   (2X)
D|-------------------------------------------------|
A|-------------------------------------------------|
E|-------------------------------------------------|
     E5
E|-------------------------------------------------||-------------------------|
B|-------------------------------------------------||-------------------------|
G|-------------------------------------------------||-------------------------|   (2x)
D|-------------------------------------------------||-------------------------|
A|-------------------------------------------------||-------------------------|
E|-0-0--2--0--3--0-0-0--2--0--3--0-0-0--2--0--3--0-||--6--5--3--0--6--5--3--0-|
                 . . .           . . .
     Em          E5
E|-----------|-------|
B|-0---------|-------|
G|---0-------|-------|
D|-----2-----|-2-----|
A|-------2---|---2---|
E|---------0-|-----0-|

Base:
                     (2x)
E|-----------------------||-------------------|
B|-----------------------||-------------------|
G|-----------------------||-------------------|
D|-0-2-0-2-0-2-2-0-2-3-2-||-0-3-2-5-3-2-2-0-2-|
A|-----------------------||-------------------|
E|-----------------------||-------------------|

Virada rápida:
E|--------------------------|
B|--------------------------|
G|--------------------------|
D|-5-5-5--3--2--0--2--2-2-2-|
A|--------------------------|
E|--------------------------|
                      . . .
   Em     Am     C      B        Em  Am  C
                          (3x)
E|----------------------------||------------|
B|----------------------------||------------|
G|----------------------------||------------|
D|---------------5-5-5--4-4-4-||-----2~--5~-|
A|-2-2-2--7-7-7--3-3-3--2-2-2-||-2~--0---3~-|
E|-0-0-0--5-5-5---------------||-0----------|

     Am  D9  Em  G/B   C9  D9  Am  Bm  C  D
E|-----------------|-----------------------|
B|-----------------|-----------------------|
G|-----------------|-----------------------|
D|-------------9~--|-----------------------|
A|-0~--5~--7~------|-3~--5~--0~--2~--3~-5~-|
E|-----------------|-----------------------|

Refrão:
     C             Am            Em            D9            Am            C5
E|-------------|-------------|-------------|-------------|-------------|-------------|
B|-------------|-------------|-------------|-------------|-------------|-------------|
G|-------------|-------------|-------------|-------------|-------------|-------------|
D|-5-5-5-5-5-5-|-2-2-2-2-2-2-|-------------|-7-7-7-7-7-7-|-2-2-2-2-2-0-|-5-5-5-5-5-5-|
A|-3-3-3-3-3-3-|-0-0-0-0-0-0-|-2-2-2-2-2-2-|-5-5-5-5-5-5-|-0-0-0-0-0-0-|-3-3-3-3-3-3-|
E|-------------|-------------|-0-0-0-0-0-0-|-------------|-------------|-------------|
   Em            D9                    Em
                         (2x)
E|-------------|-------------||----------|
B|-------------|-------------||----------|
G|-------------|-------------||----------|
D|-------------|-7-7-7-7-7-7-||---2---7--|
A|-2-2-2-2-2-2-|-5-5-5-5-5-5-||-0---5----| (Início)
E|-0-0-0-0-0-0-|-------------||----------|
Acordes para:
    Colaboração e revisão:
    • Roberto Gonçalves
    • André da

    0 comentários

      mostrar mais comentários

      Conseguiu tocar?

      0tocaram0ainda não

      Grave um vídeo tocando The Jesus Metal Explosion e mande pra gente!

      00:00 / 00:00
      outros vídeos desta música
      repetirqualidadeAutomático
      Outro vídeos desta música
        00:00 / 00:00
        OK