Cifra Club

Aprenda

March Of Time

Helloween

Cifra: Principal (violão e guitarra)
tom: F#
     W                   W                   W                 
E||-------------------|-------------------|-------------------|
B||-------------------|-------------------|-------------------|
G||-------------------|-------------------|-------------------|
D||-------------------|--4----------------|--L----------------|
A||-------------------|--4----------------|--L----------------|
E||-------------------|--2----------------|--L----------------|

  W                   W                   W                   W                 
-------------------|-------------------|-------------------|-------------------|
--3----------------|--L----------------|-------------------|-------------------|
--2----------------|--L----------------|-------------------|-------------------|
--0----------------|--L----------------|--4----------------|--L----------------|
-------------------|-------------------|--4----------------|--L----------------|
-------------------|-------------------|--2----------------|--L----------------|

  W                   W                   W                   W                 
-------------------|-------------------|-------------------|-------------------|
-------------------|-------------------|-------------------|-------------------|
-------------------|-------------------|-------------------|-------------------|
--2----------------|--L----------------|--4----------------|--L----------------|
--2----------------|--L----------------|--4----------------|--L----------------|
--0----------------|--L----------------|--2----------------|--L----------------|

  W                   W                   W                   W                 
-------------------|-------------------|-------------------|-------------------|
--3----------------|--L----------------|-------------------|-------------------|
--2----------------|--L----------------|--2----------------|--2----------------|
--0----------------|--L----------------|--2----------------|--2----------------|
-------------------|-------------------|--0----------------|--0----------------|
-------------------|-------------------|-------------------|-------------------|

  W                   W                   W                   W                 
-------------------|-------------------|-------------------|-------------------|
-------------------|-------------------|-------------------|-------------------|
-------------------|-------------------|-------------------|-------------------|
--2----------------|--L----------------|--4----------------|--L----------------|
--2----------------|--L----------------|--4----------------|--L----------------|
--0----------------|--L----------------|--2----------------|--L----------------|

  S S S S S S S S S S S S S S S S    S S S S S S S S S S S S S S S S  
----------------------------------|----------------------------------|
----------------------------------|----------------------------------|
----------------------------------|----------------------------------|
--2-2-2-2-2-2-2-2-2-2-2-2-2-2-2-2-|--2-2-2-2-2-2-2-2-2-2-2-2-2-2-2-2-|
----------------------------------|----------------------------------|
----------------------------------|----------------------------------|

  S S S S S S S S S S S S S S S S    S S S S S S S S S S Q    E   
----------------------------------|------------------------------|
----------------------------------|------------------------------|
----------------------------------|----------------------5----7--|
----------------------------------|----------------------5----7--|
--3-3-3-3-3-3-3-3-3-3-3-3-3-3-3-3-|--3-3-3-3-3-3-3-3-3-3-3----5--|
----------------------------------|------------------------------|

  S S S S S S S S S S S S S S S S    S S S S S S S S S S S S S S S S  
----------------------------------|----------------------------------|
----------------------------------|----------------------------------|
----------------------------------|----------------------------------|
--2-2-2-2-2-2-2-2-2-2-2-2-2-2-2-2-|--2-2-2-2-2-2-2-2-2-2-2-2-2-2-2-2-|
----------------------------------|----------------------------------|
----------------------------------|----------------------------------|

  S S S S S S S S S S S S S S S S    S S S S S S S S S S S S S S S S  
----------------------------------|----------------------------------|
----------------------------------|----------------------------------|
----------------------------------|----------------------------------|
----------------------------------|----------------------------------|
--3-3-3-3-3-3-3-3-3-3-3-3-3-3-3-3-|--5-5-5-5-5-5-5-5-5-5-5-5-5-5-5-5-|
----------------------------------|----------------------------------|

  E  S S S S E  S S E  S S S S    E  S S S S S S S S S S S S S S  
-------------------------------|---------------------------------|
-------------------------------|---------------------------------|
-------------------------------|---------------------------------|
--9----------9------9--------0-|--9----------------------7-5-----|
--7----------7------7--0-1-2---|--7--------------7-5-------------|
-----0-0-0-0----0-0------------|-----0-0-0-0-0-0-----0-0-----0-0-|

  E  S S S S E  S S E  S S S S    E  S S S S S S Q    Q     
-------------------------------|---------------------------|
-------------------------------|---------------------------|
-------------------------------|-----------------5----7----|
--9----------9------9--------0-|--9--------------5----7----|
--7----------7------7--0-1-2---|--7--------------3----5----|
-----0-0-0-0----0-0------------|-----0-0-0-0-0-0-----------|

  E  S S S S E  S S E  S S S S    E  S S S S S S S S S S S S S S  
-------------------------------|---------------------------------|
-------------------------------|---------------------------------|
-------------------------------|---------------------------------|
--9----------9------9--------0-|--9----------------------7-5-----|
--7----------7------7--0-1-2---|--7--------------7-5-------------|
-----0-0-0-0----0-0------------|-----0-0-0-0-0-0-----0-0-----0-0-|

  E  S S S S E  S S E  S S S S    E  S S S S S S S S S S S S S S  
-------------------------------|---------------------------------|
-------------------------------|---------------------------------|
-------------------------------|---------------------------------|
--9----------9------9--------0-|--9----------------------7-5-----|
--7----------7------7--0-1-2---|--7--------------7-5-------------|
-----0-0-0-0----0-0------------|-----0-0-0-0-0-0-----0-0-----0-0-|

  E  S S S S E  S S S S E  S S    E  S S S S E  S S S S E  S S  
-------------------------------|-------------------------------|
-------------------------------|-------------------------------|
-------------------------------|-------------------------------|
--4----------4----------4------|--4----------4----------4------|
--2--3-3-3-3-2--3-3-3-3-2--3-3-|--2--3-3-3-3-2--3-3-3-3-2--3-3-|
-------------------------------|-------------------------------|

  E  S S S S E  S S E  S S S S    E  S S S S S S S E  S S E  S  
-------------------------------|-------------------------------|
-------------------------------|-------------------------------|
-------------------------------|-----------------5-5--L-7-7--L-|
--9----------9------9--------0-|--9--------------5-5--L-7-7--L-|
--7----------7------7--0-1-2---|--7--------------3-3--L-5-5--L-|
-----0-0-0-0----0-0------------|-----0-0-0-0-0-0---------------|

  E  S S S S E  S S E  S S S S    E  S S S S S S S S S S S S S S  
-------------------------------|---------------------------------|
-------------------------------|---------------------------------|
-------------------------------|---------------------------------|
--9----------9------9--------0-|--9----------------------7-5-----|
--7----------7------7--0-1-2---|--7--------------7-5-------------|
-----0-0-0-0----0-0------------|-----0-0-0-0-0-0-----0-0-----0-0-|

  E  S S S S E  S S E  S S S S    E  S S S S S S S S S S S S S S  
-------------------------------|---------------------------------|
-------------------------------|---------------------------------|
-------------------------------|---------------------------------|
--9----------9------9--------0-|--9----------------------7-5-----|
--7----------7------7--0-1-2---|--7--------------7-5-------------|
-----0-0-0-0----0-0------------|-----0-0-0-0-0-0-----0-0-----0-0-|

  E  S S S S E  S S S S E  S S    E  S S S S E  S S S S E  S S  
-------------------------------|-------------------------------|
-------------------------------|-------------------------------|
-------------------------------|-------------------------------|
--4----------4----------4------|--4----------4----------4------|
--2--3-3-3-3-2--3-3-3-3-2--3-3-|--2--3-3-3-3-2--3-3-3-3-2--3-3-|
-------------------------------|-------------------------------|

  E  S S S S E  S S E  S S S S    E  S S S S S S S S S S S S S S  
-------------------------------|---------------------------------|
-------------------------------|---------------------------------|
-------------------------------|---------------------------------|
--9----------9------9--------0-|--9----------------------7-5-----|
--7----------7------7--0-1-2---|--7--------------7-5-------------|
-----0-0-0-0----0-0------------|-----0-0-0-0-0-0-----0-0-----0-0-|

  Q    E  S S Q    E  S S    E  E  E  E  E  E  E  E     E  E  Q.     E  E  E   
--------------------------|--------------------------|------------------------|
----------6-6-6----L--6-6-|--6-----------------------|------------------------|
--------------------------|-----6--6-----------------|------------------------|
--3----L------------------|-----------6--6-----------|------------------------|
--------------------------|-----------------7--7--7--|--2--4--4---------------|
--------------------------|--------------------------|--------2------1--2--4--|

  E  E  E  E  E  E  E  E     Q    E  S S Q    E  S S  
--------------------------|--------------------------|
--------------------------|----------6-6-6----L--6-6-|
--------------------------|--------------------------|
--------------------------|--3----L------------------|
--------------------------|--------------------------|
--2--1--2--4--2--4--2--1--|--------------------------|

  E  E  E  E  E  E  E  E     E  E  E  E  E  E  E  E   
--------------------------|--------------------------|
--6-----------------------|--------------------------|
-----6--6-----------------|--------------------------|
-----------6--6-----------|--7--7--7--7--7--7--7--7--|
-----------------7--7--7--|--5--5--5--5--5--5--5--5--|
--------------------------|--------------------------|

  E  E  E  E  E  E  E  E     E  E  Q    Q    Q       W                 
--------------------------|-----------------------|-------------------|
--------------------------|-----------------------|-------------------|
--------------------------|-----------------------|-------------------|
--9--9--9--9--9--9--9--9--|--9--------------------|--4----------------|
--7--7--7--7--7--7--7--7--|--7-----0--------------|--4----------------|
--------------------------|-------------4----0----|--2----------------|

  W                   W                   W                   W                 
-------------------|-------------------|-------------------|-------------------|
-------------------|--3----------------|--L----------------|-------------------|
-------------------|--2----------------|--L----------------|--2----------------|
--L----------------|--0----------------|--L----------------|--2----------------|
--L----------------|-------------------|-------------------|--0----------------|
--L----------------|-------------------|-------------------|-------------------|

  W                   W                   W                   W                 
-------------------|-------------------|-------------------|-------------------|
-------------------|-------------------|-------------------|-------------------|
--L----------------|-------------------|-------------------|-------------------|
--L----------------|--2----------------|--L----------------|--4----------------|
--L----------------|--2----------------|--L----------------|--4----------------|
-------------------|--0----------------|--L----------------|--2----------------|

  W                   W                   W                   W                 
-------------------|-------------------|-------------------|-------------------|
-------------------|--3----------------|--L----------------|-------------------|
-------------------|--2----------------|--L----------------|--2----------------|
--L----------------|--0----------------|--L----------------|--2----------------|
--L----------------|-------------------|-------------------|--0----------------|
--L----------------|-------------------|-------------------|-------------------|

  W                   W                   W                   W                 
-------------------|-------------------|-------------------|-------------------|
-------------------|-------------------|-------------------|-------------------|
--L----------------|-------------------|-------------------|-------------------|
--L----------------|--2----------------|--L----------------|--4----------------|
--L----------------|--2----------------|--L----------------|--4----------------|
-------------------|--0----------------|--L----------------|--2----------------|

  H.           Q       E  S S S S E  S S E  S S S S  
--------------------|-------------------------------|
--------------------|-------------------------------|
---------------6----|-------------------------------|
--L------------6----|--9----------9------9--------0-|
--L------------4----|--7----------7------7--0-1-2---|
--L-----------------|-----0-0-0-0----0-0------------|

  E  S S S S S S S S S S S S S S    E  S S S S E  S S E  S S S S  
---------------------------------|-------------------------------|
---------------------------------|-------------------------------|
---------------------------------|-------------------------------|
--9----------------------7-5-----|--9----------9------9--------0-|
--7--------------7-5-------------|--7----------7------7--0-1-2---|
-----0-0-0-0-0-0-----0-0-----0-0-|-----0-0-0-0----0-0------------|

  E  S S S S S S S S S S S S S S    E  S S S S E  S S S S E  S S  
---------------------------------|-------------------------------|
---------------------------------|-------------------------------|
---------------------------------|-------------------------------|
--9----------------------7-5-----|--4----------4----------4------|
--7--------------7-5-------------|--2--3-3-3-3-2--3-3-3-3-2--3-3-|
-----0-0-0-0-0-0-----0-0-----0-0-|-------------------------------|

  E  S S S S E  S S S S E  S S    E  S S S S E  S S E  S S S S  
-------------------------------|-------------------------------|
-------------------------------|-------------------------------|
-------------------------------|-------------------------------|
--4----------4----------4------|--9----------9------9--------0-|
--2--3-3-3-3-2--3-3-3-3-2--3-3-|--7----------7------7--0-1-2---|
-------------------------------|-----0-0-0-0----0-0------------|

  E  S S S S S S Q    Q       E  S S S S E  S S E  S S S S  
---------------------------|-------------------------------|
---------------------------|-------------------------------|
-----------------5----7----|-------------------------------|
--9--------------5----7----|--9----------9------9--------0-|
--7--------------3----5----|--7----------7------7--0-1-2---|
-----0-0-0-0-0-0-----------|-----0-0-0-0----0-0------------|

  E  S S S S S S S S S S S S S S    E  S S S S E  S S E  S S S S  
---------------------------------|-------------------------------|
---------------------------------|-------------------------------|
---------------------------------|-------------------------------|
--9----------------------7-5-----|--9----------9------9--------0-|
--7--------------7-5-------------|--7----------7------7--0-1-2---|
-----0-0-0-0-0-0-----0-0-----0-0-|-----0-0-0-0----0-0------------|

  E  S S S S S S S S S S S S S S    E  S S S S E  S S S S E  S S  
---------------------------------|-------------------------------|
---------------------------------|-------------------------------|
---------------------------------|-------------------------------|
--9----------------------7-5-----|--4----------4----------4------|
--7--------------7-5-------------|--2--3-3-3-3-2--3-3-3-3-2--3-3-|
-----0-0-0-0-0-0-----0-0-----0-0-|-------------------------------|

  E  S S S S E  S S S S E  S S    E  S S S S E  S S E  S S S S  
-------------------------------|-------------------------------|
-------------------------------|-------------------------------|
-------------------------------|-------------------------------|
--4----------4----------4------|--9----------9------9--------0-|
--2--3-3-3-3-2--3-3-3-3-2--3-3-|--7----------7------7--0-1-2---|
-------------------------------|-----0-0-0-0----0-0------------|

  E  S S S S S S S S S S S S S S    Q    E  S S Q    E  S S  
---------------------------------|--------------------------|
---------------------------------|----------6-6-6----L--6-6-|
---------------------------------|--------------------------|
--9----------------------7-5-----|--3----L------------------|
--7--------------7-5-------------|--------------------------|
-----0-0-0-0-0-0-----0-0-----0-0-|--------------------------|

  E  E  E  E  E  E  E  E     E  E  Q.     E  E  E     E  E  E  E  E  E  E  E   
--------------------------|------------------------|--------------------------|
--6-----------------------|------------------------|--------------------------|
-----6--6-----------------|------------------------|--------------------------|
-----------6--6-----------|------------------------|--------------------------|
-----------------7--7--7--|--2--4--4---------------|--------------------------|
--------------------------|--------2------1--2--4--|--2--1--2--4--2--4--2--1--|

  Q    E  S S Q    E  S S    E  E  E  E  E  E  E  E   
--------------------------|--------------------------|
----------6-6-6----L--6-6-|--6-----------------------|
--------------------------|-----6--6-----------------|
--3----L------------------|-----------6--6-----------|
--------------------------|-----------------7--7--7--|
--------------------------|--------------------------|

  E  E  E  E  E  E  E  E     E  E  E  E  E  E  E  E     E  E  Q    Q    Q     
--------------------------|--------------------------|-----------------------|
--------------------------|--------------------------|-----------------------|
--------------------------|--------------------------|-----------------------|
--7--7--7--7--7--7--7--7--|--9--9--9--9--9--9--9--9--|--9--------------------|
--5--5--5--5--5--5--5--5--|--7--7--7--7--7--7--7--7--|--7-----0--------------|
--------------------------|--------------------------|-------------4----0----|

  W                   W                   W                   W                 
-------------------|-------------------|-------------------|-------------------|
-------------------|-------------------|--3----------------|--L----------------|
-------------------|-------------------|--2----------------|--L----------------|
--4----------------|--L----------------|--0----------------|--L----------------|
--4----------------|--L----------------|-------------------|-------------------|
--2----------------|--L----------------|-------------------|-------------------|

  W                   W                   W                   W                 
-------------------|-------------------|-------------------|-------------------|
-------------------|-------------------|-------------------|-------------------|
--2----------------|--L----------------|-------------------|-------------------|
--2----------------|--L----------------|--2----------------|--L----------------|
--0----------------|--L----------------|--2----------------|--L----------------|
-------------------|-------------------|--0----------------|--L----------------|

  W                   W                   W                   W                 
-------------------|-------------------|-------------------|-------------------|
-------------------|-------------------|--3----------------|--L----------------|
-------------------|-------------------|--2----------------|--L----------------|
--4----------------|--L----------------|--0----------------|--L----------------|
--4----------------|--L----------------|-------------------|-------------------|
--2----------------|--L----------------|-------------------|-------------------|

  W                   W                   W                   W                 
-------------------|-------------------|-------------------|-------------------|
-------------------|-------------------|-------------------|-------------------|
--2----------------|--L----------------|-------------------|-------------------|
--2----------------|--L----------------|--2----------------|--L----------------|
--0----------------|--L----------------|--2----------------|--L----------------|
-------------------|-------------------|--0----------------|--L----------------|

  W                   W                   W                 
-------------------|-------------------|-------------------|
-------------------|-------------------|-------------------|
-------------------|--6----------------|--L----------------|
--4----------------|--6----------------|--L----------------|
--4----------------|--4----------------|--L----------------|
--2----------------|-------------------|-------------------|

  H.           Q       H.           E  S S    H.            Q     
--------------------|----------------------|---------------------|
--------------------|----------------------|---------------------|
---------------6----|----------------------|---------------------|
---------------6----|------------------7-7-|--7~------------L----|
---------------4----|----------------------|---------------------|
--------------------|--5------------L------|---------------------|

  H.           E  S S    H.            Q       H.           E  S S  
----------------------|---------------------|----------------------|
------------------6-6-|--6~------------L----|----------------------|
----------------------|---------------------|----------------------|
--3------------L------|---------------------|------------------7-7-|
----------------------|---------------------|----------------------|
----------------------|---------------------|--5------------L------|

  H.            Q       H.           E  S S    H.            Q     
---------------------|----------------------|---------------------|
---------------------|------------------6-6-|--6~------------L----|
---------------------|----------------------|---------------------|
--7~------------L----|--3------------L------|---------------------|
---------------------|----------------------|---------------------|
---------------------|----------------------|---------------------|

  E  S E  S E  S  S  S S S S S S    E  S E  S E  S  S  S S S S S S  
---------------------------------|---------------------------------|
---------------------------------|---------------------------------|
---------------------------------|---------------------------------|
--5----7----9----10-10---9---7---|--5----7----9----10-10---9---7---|
-----7----7----------------------|-----7----7----------------------|
---------------------------------|---------------------------------|

  E  S E  S E  S S S S S S S S    S S S S S S S S S S S S S S S S  
-------------------------------|----------------------------------|
-------------------------------|----------------------------------|
-------------------------------|----------------------------------|
--4----5----7----9-9---7---4---|----------------------------------|
-----5----5--------------------|----------------------------------|
-------------------------------|--0-0-0-0-0-0-0-0-0-0-0-0-0-0-0-0-|

  E  S E  S E  S  S  S S S S S S    E  S E  S E  S  S  S S S S S S  
---------------------------------|---------------------------------|
---------------------------------|---------------------------------|
---------------------------------|---------------------------------|
--5----7----9----10-10---9---7---|--5----7----9----10-10---9---7---|
-----7----7----------------------|-----7----7----------------------|
---------------------------------|---------------------------------|

  E  S E  S E  S S S S S S S S    S S S S S S S S S S S S S S S S  
-------------------------------|----------------------------------|
-------------------------------|----------------------------------|
-------------------------------|----------------------------------|
--4----5----7----9-9---7---4---|----------------------------------|
-----5----5--------------------|----------------------------------|
-------------------------------|--0-0-0-0-0-0-0-0-0-0-0-0-0-0-0-0-|

  W                   W                   W                   W                 
-------------------|-------------------|-------------------|-------------------|
-------------------|-------------------|-------------------|-------------------|
-------------------|--6----------------|-------------------|--6----------------|
--4----------------|--6----------------|--4----------------|--6----------------|
--4----------------|--4----------------|--4----------------|--4----------------|
--2----------------|-------------------|--2----------------|-------------------|

  W                   W                   W                   W                 
-------------------|-------------------|-------------------|-------------------|
-------------------|-------------------|-------------------|-------------------|
-------------------|--9----------------|--7----------------|--6----------------|
--4----------------|--9----------------|--7----------------|--6----------------|
--4----------------|--7----------------|--5----------------|--4----------------|
--2----------------|-------------------|-------------------|-------------------|

  E  E  E  E  H           E  E  E  E  H           E  E  E  E  H         
-----------------------|-----------------------|-----------------------|
-----------------------|-----------------------|-----------------------|
-----------------------|--------------6--------|-----------------------|
--------------4--------|--------------6--------|--------------4--------|
--------------4--------|--4--4--4--4-----------|--------------4--------|
--2--2--2--2-----------|-----------------------|--2--2--2--2-----------|

  E  E  E  E  H           E  E  E  E  H           E  E  E  E  H         
-----------------------|-----------------------|-----------------------|
-----------------------|-----------------------|-----------------------|
--------------6--------|-----------------------|--------------9--------|
--------------6--------|--------------4--------|--------------9--------|
--4--4--4--4-----------|--------------4--------|--7--7--7--7-----------|
-----------------------|--2--2--2--2-----------|-----------------------|

  W                   W                   W                   W                 
-------------------|-------------------|-------------------|-------------------|
--3----------------|-------------------|-------------------|-------------------|
--2----------------|--6----------------|-------------------|-------------------|
--0----------------|--6----------------|--4----------------|--4----------------|
-------------------|--4----------------|--4----------------|--4----------------|
-------------------|-------------------|--2----------------|--2----------------|

  S S  S  S  S  S  S  S S S  S  S  S  S  S  S  
----------------------------------------------|
----------------------------------------------|
--9-9-12-12-11-11-12-12-9-9-12-12-11-11-12-12-|
----------------------------------------------|
----------------------------------------------|
----------------------------------------------|

  S S  S  S  S  S  S  S  S  S  S  S  S S S S  
---------------------------------------------|
---------------------------------------------|
--9-9-12-12-11-11-12-12-14-14-12-12-11-9-7-7-|
---------------------------------------------|
---------------------------------------------|
---------------------------------------------|

  S S  S  S  S  S  S  S S S  S  S  S  S  S  S  
----------------------------------------------|
----------------------------------------------|
--9-9-12-12-11-11-12-12-9-9-12-12-11-11-12-12-|
----------------------------------------------|
----------------------------------------------|
----------------------------------------------|

  S S  S  S  S  S  S  S  S  S Q    E   
--------------------------------------|
--------------------------------------|
--9-9-12-12-11-11-12-12-14-14---------|
------------------------------5----7--|
------------------------------3----5--|
--------------------------------------|

  S S  S  S  S  S  S  S S S  S  S  S  S  S  S  
----------------------------------------------|
----------------------------------------------|
--9-9-12-12-11-11-12-12-9-9-12-12-11-11-12-12-|
----------------------------------------------|
----------------------------------------------|
----------------------------------------------|

  S S  S  S  S  S  S  S  S  S  S  S  S S S S  
---------------------------------------------|
---------------------------------------------|
--9-9-12-12-11-11-12-12-14-14-12-12-11-9-7-7-|
---------------------------------------------|
---------------------------------------------|
---------------------------------------------|

  S S  S  S  S  S  S  S S S  S  S  S  S  S  S  
----------------------------------------------|
----------------------------------------------|
--9-9-12-12-11-11-12-12-9-9-12-12-11-11-12-12-|
----------------------------------------------|
----------------------------------------------|
----------------------------------------------|

  S S  S  S  S  S  S  S  S  S  S  S  S S S S  
---------------------------------------------|
---------------------------------------------|
--9-9-12-12-11-11-12-12-14-14-12-12-11-9-7-7-|
---------------------------------------------|
---------------------------------------------|
---------------------------------------------|

   S  S  S  S  S  S  S  S  S  S  S  S  S  S  S  S  
--------------------------------------------------|
--------------------------------------------------|
--11-11-14-14-13-13-14-14-11-11-14-14-13-13-14-14-|
--------------------------------------------------|
--------------------------------------------------|
--------------------------------------------------|

   S  S  S  S  S  S  S  S  S  S  S  S  S  S S S  
------------------------------------------------|
------------------------------------------------|
--11-11-14-14-13-13-14-14-11-11-14-14-13-11-9-9-|
------------------------------------------------|
------------------------------------------------|
------------------------------------------------|

   S  S  S  S  S  S  S  S  S  S  S  S  S  S  S  S  
--------------------------------------------------|
--------------------------------------------------|
--11-11-14-14-13-13-14-14-11-11-14-14-13-13-14-14-|
--------------------------------------------------|
--------------------------------------------------|
--------------------------------------------------|

   S  S  S  S  S  S  S  S  S  S Q    E   
----------------------------------------|
----------------------------------------|
--11-11-14-14-13-13-14-14-11-11---------|
--------------------------------7----9--|
--------------------------------5----7--|
----------------------------------------|

   S  S  S  S  S  S  S  S  S  S  S  S  S  S  S  S  
--------------------------------------------------|
--------------------------------------------------|
--11-11-14-14-13-13-14-14-11-11-14-14-13-13-14-14-|
--------------------------------------------------|
--------------------------------------------------|
--------------------------------------------------|

   S  S  S  S  S  S  S  S  S  S  S  S  S  S S S  
------------------------------------------------|
------------------------------------------------|
--11-11-14-14-13-13-14-14-11-11-14-14-13-11-9-9-|
------------------------------------------------|
------------------------------------------------|
------------------------------------------------|

   S  S  S  S  S  S  S  S  S  S  S  S  S  S  S  S  
--------------------------------------------------|
--------------------------------------------------|
--11-11-14-14-13-13-14-14-11-11-14-14-13-13-14-14-|
--------------------------------------------------|
--------------------------------------------------|
--------------------------------------------------|

   S  S  S  S  S  S  S  S  S  S  S  S  S  S S S    W                 
------------------------------------------------|-------------------|
------------------------------------------------|-------------------|
--11-11-14-14-13-13-14-14-11-11-14-14-13-11-9-9-|-------------------|
------------------------------------------------|--4----------------|
------------------------------------------------|--4----------------|
------------------------------------------------|--2----------------|

  W                   W                   W                   W                 
-------------------|-------------------|-------------------|-------------------|
-------------------|--3----------------|--L----------------|-------------------|
-------------------|--2----------------|--L----------------|--2----------------|
--L----------------|--0----------------|--L----------------|--2----------------|
--L----------------|-------------------|-------------------|--0----------------|
--L----------------|-------------------|-------------------|-------------------|

  W                   W                   W                   W                 
-------------------|-------------------|-------------------|-------------------|
-------------------|-------------------|-------------------|-------------------|
--L----------------|-------------------|-------------------|-------------------|
--L----------------|--2----------------|--L----------------|--4----------------|
--L----------------|--2----------------|--L----------------|--4----------------|
-------------------|--0----------------|--L----------------|--2----------------|

  W                   W                   W                   W                 
-------------------|-------------------|-------------------|-------------------|
-------------------|--3----------------|--L----------------|-------------------|
-------------------|--2----------------|--L----------------|--2----------------|
--L----------------|--0----------------|--L----------------|--2----------------|
--L----------------|-------------------|-------------------|--0----------------|
--L----------------|-------------------|-------------------|-------------------|

  W                   W                   W                   W                 
-------------------|-------------------|-------------------|-------------------|
-------------------|-------------------|-------------------|-------------------|
--L----------------|-------------------|-------------------|-------------------|
--L----------------|--2----------------|--L----------------|--4----------------|
--L----------------|--2----------------|--L----------------|--4----------------|
-------------------|--0----------------|--L----------------|--2----------------|

  Q    E  S S Q    E  S S    Q    E  S S Q    E  S S  
--------------------------|--------------------------|
--------------------------|--------------------------|
----------6-6-6----L------|----------6-6-6----L------|
--------------------------|--------------------------|
--4----L--------------4-4-|--4----L--------------4-4-|
--------------------------|--------------------------|

  Q    E  S S Q    E  S S    Q    E  S S Q    E  S S    E  Q    H        E   
--------------------------|--------------------------|----------------------|
--------------------------|--------------------------|----------------------|
----------6-6-6----L------|----------6-6-6----L------|----------------------|
--------------------------|--------------------------|--2--4----------------|
--4----L--------------4-4-|--4----L--------------4-4-|--2--4----------------|
--------------------------|--------------------------|--0--2----------------|

----||
----||
----||
----||
----||
----||

Duration Legend
---------------
W - whole
H - half
Q - quarter
E - 8th
S - 16th
T - 32nd
X - 64th
. - note dotted
|-n-|  - n-tuplets

Tablature Legend
----------------
L - tied note
x - dead note
g - grace note
(n) - ghost note
> - accentuded note
NH - natural harmonic
AH - artificial harmonic
TH - tapped harmonic
SH - semi harmonic
PH - pitch harmonic
h - hammer on
p - pull off
b - bend
br - bendRelease
pb - preBend
pbr - preBendRelease
brb - bendReleaseBend
\n/ - tremolo bar dip
\n - tremolo bar dive
-/n - tremolo bar Release up
/n\ - tremolo bar inverted dip
/n - tremolo bar return
-\n - tremolo bar Release down
S - shift slide
s - legato slide
/ -  slide into from below or out of upwards
\ -  slide into from above or out of downwards
~ - vibrato
W - wide vibrato
tr - trill
TP - tremolo picking
T - tapping
S - slap
P - pop
< - fade in
^ - brush up
v - brush down
Composição de Kai Hansen
Colaboração e revisão:
  • Taino Vieira
3.136 exibições
    • ½ Tom
    • A
    • Bb
    • B
    • C
    • Db
    • D
    • Eb
    • E
    • F
    • F#
    • G
    • Ab
  • Adicionar à lista

    0 comentários

    Ver todos os comentários

    Conseguiu tocar?

    0 Tocaram 1 Ainda não

    Grave um vídeo tocando March Of Time e nos envie!

    00:00 / 00:00
    Outros vídeos desta música
    Repetir Qualidade Automático
    Outros vídeos desta música
    00:00 / 00:00
    Automático

    Cifra Club Pro

    Aproveite o Cifra Club com benefícios exclusivos e sem anúncios
    Cifra Club Pro
    Aproveite o Cifra Club com benefícios exclusivos e sem anúncios
    OK