Cifra Club

Midnight Sun

Helloween

Cifra: Principal (violão e guitarra)
Selo Cifra Club: esta cifra foi revisada para atender aos critérios oficiais da nossa Equipe de Qualidade.
tom: B
Intro;
|-----------------------------|----------------------------------|
|-----------------------------|----------------------------------|
|-9-5-7-9-5-7-9-7-5---7-5-----|-10-7-9-10-7-9-10-9-7----9-7------|
|-------------------9-----9-7-|----------------------10-----10-9-|
|-----------------------------|----------------------------------|
|-----------------------------|----------------------------------|

|-------------------------------------------|
|-------------------------------------------|
|-14-10-12-14-10-12-14-12-10----12-10-------|
|----------------------------14-------14-12-|
|-------------------------------------------|
|-------------------------------------------|

|-------------------------------------------|
|-13-10-12-13-10-12-13-12-10----12-10-------|
|----------------------------12-------12-10-|
|-------------------------------------------|Fazer 2 Vezes Intro;
|-------------------------------------------|
|-------------------------------------------|

|------------|------------|-----------|----------|
|------------|------------|-----------|----------|
|------------|------------|-----5-4-2-|--------4-|
|------------|------------|-----5-4-2-|--------2-|
|---------3~-|---------5~-|-----------|-5-7-5----|
|-0-0-0-0-1~-|-0-0-0-0-3~-|-0-0-------|-3-5-3----|

|------------|------------|-----------------------|
|------------|------------|-555-777-888-----------|
|------------|------------|-------------777-44----|
|------------|------------|--------------------55-|
|---------3~-|---------5~-|-----------------------|
|-0-0-0-0-1~-|-0-0-0-0-3~-|-----------------------|

|------------------------------------------------|
|------------|------------|-----------|----------|
|------------|------------|-----5-4-2-|--------4-|
|------------|------------|-----5-4-2-|--------2-|
|---------3~-|---------5~-|-----------|-5-7-5----|
|-0-0-0-0-1~-|-0-0-0-0-3~-|-0-0-------|-3-5-3----|

|------------|------------|--------------------------|
|------------|------------|-------------101010-88-77-|
|------------|------------|-555-777-999--------------|
|------------|------------|--------------------------|
|---------3~-|---------5~-|--------------------------|
|-0-0-0-0-1~-|-0-0-0-0-3~-|--------------------------|

Passagem 1
    t       t         t         t         t         t
|--12p8p5-|-13p8p5-|--12p8p5-|--13p8p5-|--12p8p5-|--12p8p3-|
|---------|--------|---------|---------|---------|---------|
|---------|--------|---------|---------|---------|---------|
|-7 vezes-|--------|-7 vezes-|-2 vezes-|-2 vezes-|-7 vezes-|
|---------|--------|---------|---------|---------|---------|
|---------|--------|---------|---------|---------|---------|

   t         t        t         t         t         t
|--10p7p3-|--12p8p5-|-13p8p5-|--12p8p5-|--13p8p5-|--12p8p5-|
|---------|---------|--------|---------|---------|---------|
|---------|---------|--------|---------|---------|---------|
|-8 vezes-|-7 vezes-|--------|-4 vezes-|-2 vezes-|-2 vezes-|
|---------|---------|--------|---------|---------|---------|
|---------|---------|--------|---------|---------|---------|

   t         t
|--12p8p5-|--10p7p3-|
|---------|---------|
|---------|---------|
|-8 vezes-|-8 vezes-|
|---------|---------|
|---------|---------|

Repetir Base 1;

Canto 1;
|---------------------|------------------|
|---------------------|------------------|
|---------------------|------------------|
|------5---9----------|----------7-9-----|
|------5---7-----10-9-|------4-5-5-7-7-9-|
|-0000---0---000------|-0000-2-3-----5-7-|

|---------------------|-----------|----------------------|
|---------------------|-----------|----------------------|
|---------------------|-----------|----------------12-11-|
|------5---9----------|-7~---7--8-|------5---9-----------|
|------5---7-----10-9-|-5~---5--6-|------5---7-----------|
|-0000---0---000------|-----------|-0000---0---000-------|

|------------------|---------------------|-------------|
|------------------|---------------------|-------------|
|------------------|---------------------|-------------|
|----------7-9-----|------5---9----------|-7~-----7--8-|
|------4-5-5-7-7-9-|------5---7-----10-9-|-5~-----5--6-|
|-0000-2-3-----5-7-|-0000---0---000------|-------------|

|----------------------|-----------------|---------------------|
|----------------------|-----------------|---------------------|
|----------------------|-----------------|---------------------|
|-5-------5----9-------|-7-------4--7----|-5------5----9-------|
|-77777777777710101010-|-999999995559999-|-7777777777710101010-|
|----------------------|-----------------|---------------------|

(             1 vez                )(      2 vez       )
|------------|----------|----------|------------------|
|------------|----------|----------|------------------|
|------------|----------|-------4--|------------------|
|----------4-|-------4--|-2-4-5----|------------4-5-7-|
|-3--3-5-7---|-3-5-7----|----------|-3--3-3-5-7---3-5-|
|------------|----------|----------|------------------|

Refrão;
|-------------|------------------|-----------------|
|-------------|------------------|-----------------|
|-------------|------------------|-----------------|
|-9---------4-|-5-----2-4--------|-----------------|
|-7---------2-|-3-333-0-2-2-2----|---------0-0-2-3-|
|---0000000---|--------------3-2-|-0-0-2-3---------|

|---------------------|---------------------|
|---------------------|---------------------|
|---------------------|---------------------|
|---------------------|---------------------|
|-555-333-22-3333-555-|------------------22-|
|---------------------|-333-222-00-22-33----|

|-------------------------------------------------------------|
|-------------------------------------------------------------|
|-------------------------------------------------------------|
|-------------------------------------------------------------|
|-3333-0000-2222-5555-7777-3333-0000---------------------0000-|
|------------------------------------3333-0000-3333-2222------|

|-----|-----|---------------------------------------|-----|---------|
|-----|-----|---------------------------------------|-----|---------|
|-----|-----|---------------------------------------|-----|---------|
|-5~--|-7~--|---------------------------------------|-5~--|-2~---4~-|
|-3~--|-5~--|---------------------------------------|-3~--|-0~---2~-|
|-----|-----|-33333333-22222222-0000-2222-3333-0000-|-----|---------|


Passagem 2 e base do solo 1;

|------------------|-----------------------|
|------------------|-----------------------|
|------------------|-----------------------|
|----------------7-|-9---------5-7---------|
|----------------5-|-7---------3-5-----5-4-|
|-00000000000000---|---0-0-0-0-----0-0-3-2-|

|------------------------------|---------------|--------------------|
|------------------------------|---------------|--------------------|
|------------------------------|---------------|-7------------------|
|----------7-5------7-9--------|-9-----------7-|-5-------5-7----5-4-|
|----------5-5------5-7----4-5-|-7-----------5-|-5-------3-5----5-4-|
|-00000000-----0000-----00-2-3-|---000000000---|---0000------00-3-2-|

|---------------|-------------------|
|-------------7-|-8-----------------|
|-------------6-|-7-----------------|
|-9-----------4-|-5------7-9--------|
|-7-----------4-|-5------5-7----4-5-|
|---000000000---|---0000-----00-2-3-|

Passagem 3;
|-------------------------|------------------------|
|-------------------------|------------------------|_________
|-------------------------|------------------------|         |
|----44----44----44----44-|----44----44----44------|         |
|-55----55----55----55----|-55----55----55----6666-|         |
|-------------------------|------------------------|         |
                                                             |2 vezes
|-----------------------------------------------------|      |
|-----------------------------------------------------|      |
|--------------------9999-12121212-9999---------------|      |
|---------------9999--------------------9999----------|      |
|-7777-10101010------------------------------10101010-|______|      
|-----------------------------------------------------|

|---------------------------------------------------|
|----------------------h.a-h.a------------------h.a-|
|-11-12-12b-12br-11-12-12---11-12-12b-12br-11-12-12-|
|---------------------------------------------------|
|---------------------------------------------------|
|---------------------------------------------------|

Solo 2; Weik
|--------------------------------------------------------------------|
|-15b---15b--5/15151515151414151412141514141414-12-14-12-10-15-14-12-|
|--------------------------------------------------------------------|
|--------------------------------------------------------------------|
|--------------------------------------------------------------------|
|--------------------------------------------------------------------|

|---------------------------------------------|
|---------------------------------------------|
|-1514121415141212------121412121412-12141212-|
|------------------1412-121412121412----------|
|---------------------------------------------|
|---------------------------------------------|

                                                                alavancada
|----------------------------------------1212----12----1215-------------|
|----------15151212----1212----1512121215121215121215121215-15b---------|
|-14b-1616----------15------15------------------------------15b-0\----/-|
|------------------------------------------------------------------\/---|
|-----------------------------------------------------------------------|
|-----------------------------------------------------------------------|
Dar bend e ficar tocando com ele levantado
|-------------------------------------------------------|
|-------------------------------------------------------|
|-2b.............................-----------------------|
|-------------------------------------------------------|
|-------------------------------------------------------|
|-------------------------------------------------------|

|----------------------------------------------------------|
|--------------------------------14------------------------|
|-12----121214141211----12-12121413-1414131614121214121212-|
|----14--------------14-12---------------------------------|
|----------------------------------------------------------|
|----------------------------------------------------------|

|-------------|----12----12--------14151717b-|
|-15b-15b-15~-|-12----16----141517-----------|
|-------------|------------------------------|
|-------------|------------------------------|
|-------------|------------------------------|
|-------------|------------------------------|
                                                            alavancada
|-171717151515--------151515--------------------------------|--------|
|--------------171717--------151715151515151715-------------|--------|
|-----------------------------------------------171516151313|-13b-0--|
|-----------------------------------------------------------|--------|
|-----------------------------------------------------------|--------|
|-----------------------------------------------------------|--------|

Dueto 1;  2 vezes
|----------------------------------------|
|----------------------------------------|
|-1414-0-1717-0-11-11-0-1414-0-12-0-14-0-|
|----------------------------------------|
|----------------------------------------|
|----------------------------------------|

|------------------------------------------------|
|------------------------------------------------|
|-161412----1412----1412------12-----------------|
|--------16------16------1614----161412161412----|
|---------------------------------------------15-|
|------------------------------------------------|

|-------------------------------------|
|-------------------------------------|
|-1616-0-1919-0-1212-0-1616-0-12-14-0-|
|-------------------------------------|
|-------------------------------------|
|-------------------------------------|

|----------------------------------------|
|----------------------------------------|
|-161412----1412------12-----------------|
|--------16------1614----161412161412----|
|-------------------------------------15-|
|----------------------------------------|

Dueto 2; 2 vezes
|-121212121212108----|-101010101010-8-7----8-7---------------|
|-----------------12-|------------------10-----10-8-10-8-7---|
|--------------------|-------------------------------------9-|
|---2 vezes----------|---------------------------------------|
|--------------------|---------------------------------------|
|--------------------|---------------------------------------|

|-121212121212108----|-1515151515-14-12----14-12----------|
|-----------------12-|------------------15-------15-13-12-|
|--------------------|------------------------------------|
|--2 vezes-----------|------------------------------------|
|--------------------|------------------------------------|
|--------------------|------------------------------------|

|--------------------------|-171717---------------------------|
|--------------------------|--------171717-151515-------------|
|--------------------------|----------------------141414------|
|-12~---14-14b-14br-12-14~-|-----------------------------1414-|
|--------------------------|----------------------------------|
|--------------------------|----------------------------------|

|--------------------------|-151515-14-15-14-12-12-------------------|
|--------------------------|-----------------------15-13-13-12-------|
|--------------------------|-----------------------------------14-12-|
|-12~---14-14b-14br-12-14~-|-----------------------------------------|
|--------------------------|-----------------------------------------|
|--------------------------|-----------------------------------------|

|--------------------------|-15151515151412----1919191919-17-15----|
|--------------------------|----------------15------------------19-|
|--------------------------|---------------------------------------|
|-12~---14-14b-14br-12-14~-|---------------------------------------|
|--------------------------|---------------------------------------|
|--------------------------|---------------------------------------|

|----------------------|
|----------------------|
|----------------------|
|----------------------|
|-12~---14-14b-14br-12-|
|----------------------|


Pessoal, vou ficar devendo um outro riff logo tirarei.
00:00 / 00:00
Outros vídeos desta música
Repetir
Outros vídeos desta música
2.167 exibições
    • ½ Tom
    • A
    • Bb
    • B
    • C
    • Db
    • D
    • Eb
    • E
    • F
    • F#
    • G
    • Ab
  • Adicionar à lista

Afinação da cifra

Afinador online

    0 comentários

    Ver todos os comentários

    Entre para o Cifra Club PRO

    Tenha acesso a benefícios exclusivos no App e no Site

    • Chega de anúncios

    • Mais recursos no app do Afinador

    • Atendimento Prioritário

    • Aumente seu limite de lista

    • Ajude a produzir mais conteúdo

    00:00 / 00:00

    Cifra Club Pro

    Aproveite o Cifra Club com benefícios exclusivos e sem anúncios
    Cifra Club Pro
    Aproveite o Cifra Club com benefícios exclusivos e sem anúncios
    OK