Cifra Club

Aprenda

Time

Helloween

Cifra: Principal (violão e guitarra)
tom: C
Intro, riff principal e final:
e|--------------------------------------------------------------------------------------------|
B|--------------------------------------------------------------------------------------------| 
G|--------------------0---------------------0--------------------0----------------------0---|
D|--------0----0--------------0-----0----------------0----0--------------0-----0----------|
A|-----1----1----1--------3-----3----3-----------1----1----1--------3-----3-----3-------|
E|--3--------------------1----------------------3-------------------1-----------------------|

Os acordes principais são G5 e F5 :
             G5                     F5
e|--------------------------------------|
B|--------------------------------------|       
G|--------------------------------------|
D|-------5-------------------3---------|
A|-------5-------------------3---------|
E|-------3-------------------1---------|

Riff intermediário, no fundo do solo
e|------------------------------------------------------------------------------------------|
B|------------------------------------------------------------------------------------------|
G|------------------------------------------------------------------------------------5-5|
D|-----------0---------------------3----------------------0---------------5---------5-5|
A|---1-0-1----1-0-1-----1-0-1-----1-0-1------1-0-1-----1-0-1-----3----3-----3-3|
E|-3-------------------1----------------------3----------------------0--------------------|
Composição de Andi Deris
Colaboração e revisão:
  • Ivan <Mania
11.484 exibições
    • ½ Tom
    • A
    • Bb
    • B
    • C
    • Db
    • D
    • Eb
    • E
    • F
    • F#
    • G
    • Ab
  • Adicionar à lista

    0 comentários

    Ver todos os comentários

    Conseguiu tocar?

    1 Tocaram 0 Ainda não

    Grave um vídeo tocando Time e nos envie!

    00:00 / 00:00
    Outros vídeos desta música
    Repetir Qualidade Automático
    Outros vídeos desta música
    00:00 / 00:00
    Automático

    Cifra Club Pro

    Aproveite o Cifra Club com benefícios exclusivos e sem anúncios
    Cifra Club Pro
    Aproveite o Cifra Club com benefícios exclusivos e sem anúncios
    OK