Cifra Club

Aprenda

Zuar e Beber

Henrique e Diego

Cifra: Principal (violão e guitarra)
Tom: C
F                   Am
Eu vou zuar e beber
               F
Vou locar uma Van
              G
E levar a mulherada lá pro meu AP
F                    Am
 Que é pra gente beber
              F                    Am
E depois paragadá, pa ra ra, pa ra ra
              F                   Am
e depois paragadá, pa ra ra, pa ra ra... (2x)

Solo: F  Am  F  G
E|-------------5----------------5----------------5--------------------------------|
B|--------------------------------------------------------3-5-3---3---------------|
G|-2-2-2-2-2-2---2--2-2-2-2-2-2---2--2-2-2-2-2-2---2--2-5-------5-----------------|
D|--------------------------------------------------------------------------------|
A|--------------------------------------------------------------------------------|
E|--------------------------------------------------------------------------------|

E|-------------5----------------5----------------5--------------------5-3---3-----|
B|--------------------------------------------------------3-5-3---3-------5-------|
G|-2-2-2-2-2-2---2--2-2-2-2-2-2---2--2-2-2-2-2-2---2--2-5-------5-----------------|
D|--------------------------------------------------------------------------------|
A|--------------------------------------------------------------------------------|
E|--------------------------------------------------------------------------------|

         F
Hoje tem farra
                Am
Vou fazer o movimento
                 F
Lá no meu apartamento
                    G
Entrou, gostou , gamou, quer mais...
       F                     Am
Já preparei, abasteci a geladeira
                F
Tá lotada de cerveja
                G
O muído vai ser bom demais...
         Dm  Am
O prédio vai balançar
            Dm  Am
Quando a galera dançar

        Dm  F
E a cachaça subir
        G
Fazer zum, zum...
       Dm  Am
Não tem hora pra parar
            Dm  Am
O cheiro de amor no ar
         Dm  F
Vai todo mundo pirar
         G
E ficar nu...

Eu vou zuar e beber ...
Composição de Dalmo Beloti / Latino / Luizinho Lino / Marquinhos Maraial
Colaboração e revisão:
166.005 exibições
    • ½ Tom
    • A
    • Bb
    • B
    • C
    • Db
    • D
    • Eb
    • E
    • F
    • F#
    • G
    • Ab
  • Adicionar à lista

    0 comentários

    Mostrar mais comentários
    00:00 / 00:00
    outros vídeos desta música
    repetir qualidade Automático
    Outros vídeos desta música
    00:00 / 00:00
    Automático

    Cifra Club Pro

    Aproveite o Cifra Club com benefícios exclusivos e sem anúncios
    7 dias grátis
    Cifra Club Pro
    Aproveite o Cifra Club com benefícios exclusivos e sem anúncios
    7 dias grátis
    OK