A Mala É Falsa (part. Felipe Araújo)

Henrique e Juliano

Tom: G
[Intro] G  D  Em  D  C9  D

[Solo]

Parte 1

E|----------------------------------------------------|
B|-2/4-4-4h6-2-1--2/4-4-4-4-4-4-4\2p1-----------------|
G|-3/5-5-5h6-3-1----------------------3---------------|
D|----------------------------------------------------|
A|----------------------------------------------------|
E|----------------------------------------------------|


Parte 2

E|----------------------------------------------------|
B|-2/4-4-4-4-4-4-4/9-8-7------------------------------|
G|----------------------------------------------------|
D|----------------------------------------------------|
A|----------------------------------------------------|
E|----------------------------------------------------|


Parte 3

E|----------------------------------------------------|
B|-8h9--9---8-8h9--9--9--9--8-6-8-6-------------------|
G|-8h10-10--8-8h10-10-10-10-8-6-8-6-------------------|
D|----------------------------------------------------|
A|----------------------------------------------------|
E|----------------------------------------------------|


Parte 4

E|----------------------------------------------------|
B|-5/6-6-6-6-6/8-8-8-8h9--9---------------------------|
G|-5/6-6-6-6-6/8-8-8-8h10-10--------------------------|
D|----------------------------------------------------|
A|----------------------------------------------------|
E|----------------------------------------------------|


[Primeira Parte]

Em                                C9
É, agora tá com tempo pra me escutar
                               D
Agora diz que ama e que vai mudar

Eu sei que a cena é forte
           B7
Vai doer agora
                               C9
Arrumei minha mala, tô caindo fora
                           Em
Você não percebeu, mas esfriou
                            G
Caiu na rotina, você descuidou
                            D
Eu só queria um pouco de carinho
          C9            D     G
Fica tranquila amor eu tô fingindo


[Refrão]

                  G
A mala é falsa, amor
                               D
Engole o choro, embora eu não vou
                             Em
Agora vê se aprende a dar valor
                           C9  D
Mata minha sede de fazer amor

                  G
A mala é falsa, amor
                               D
Engole o choro, embora eu não vou
                             Em
Agora vê se aprende a dar valor
                           C9  D
Mata minha sede de fazer amor

[Intro] G  D  Em  D  C9  D

[Solo]

Parte 1

E|----------------------------------------------------|
B|-2/4-4-4h6-2-1--2/4-4-4-4-4-4-4\2p1-----------------|
G|-3/5-5-5h6-3-1----------------------3---------------|
D|----------------------------------------------------|
A|----------------------------------------------------|
E|----------------------------------------------------|


Parte 2

E|----------------------------------------------------|
B|-2/4-4-4-4-4-4-4/9-8-7------------------------------|
G|----------------------------------------------------|
D|----------------------------------------------------|
A|----------------------------------------------------|
E|----------------------------------------------------|


Parte 3

E|----------------------------------------------------|
B|-8h9--9--9--8-8h9--9--9--9--8-6-8-6-----------------|
G|-8h10-10-10-8-8h10-10-10-10-8-6-8-6-----------------|
D|----------------------------------------------------|
A|----------------------------------------------------|
E|----------------------------------------------------|


Parte 4

E|----------------------------------------------------|
B|-5/6-6-6-6-6/8-8-8-8h9--9---------------------------|
G|-5/6-6-6-6-6/8-8-8-8h10-10--------------------------|
D|----------------------------------------------------|
A|----------------------------------------------------|
E|----------------------------------------------------|


[Primeira Parte]

Em                                C9
É, agora tá com tempo pra me escutar
                               D
Agora diz que ama e que vai mudar

Eu sei que a cena é forte
           B7
Vai doer agora
                               C9
Arrumei minha mala, tô caindo fora
                           Em
Você não percebeu, mas esfriou
                            G
Caiu na rotina, você descuidou
                            D
Eu só queria um pouco de carinho
          C9            D        G
Fica tranquila amor eu tô fingindo


[Refrão]

                  G
A mala é falsa, amor
                               D
Engole o choro, embora eu não vou
                             Em
Agora vê se aprende a dar valor
                           C9  D
Mata minha sede de fazer amor

                  G
A mala é falsa, amor
                               D
Engole o choro, embora eu não vou
                             Em
Agora vê se aprende a dar valor
                           C9  D  G
Mata minha sede de fazer amor

                  G
A mala é falsa, amor
                               D
Engole o choro, embora eu não vou
                             Em
Agora vê se aprende a dar valor
                           C9  D  G
Mata minha sede de fazer amor
Página 1 / 1

Letras e título
Acordes e artista

resetar configurações