Cifra Club

Briga Feia

Henrique e Juliano

Cifra: Principal (violão e guitarra)
Selo Cifra Club: esta cifra foi revisada para atender aos critérios oficiais da nossa Equipe de Qualidade.
tom: Bb (forma dos acordes no tom de B) Afinação: Eb Ab Db Gb Bb Eb
[Intro]

        A9         A9/C       G9       D/F#
E|--------------------------------------------|
B|--------0-0-0------0-0-0------0-0-0-----3---|
G|---------2-2-2------2-2-2------2-2-2---2----|
D|-------2----------2----------0--------0-----|
A|------0----------3--------------------------|
E|----------------------------3--------2------|

[Primeira Parte]

        A9         A9/C       G9       D/F#
E|--------------------------------------------|
B|--------0-0-0------0-0-0------0-0-0-----3---|
G|---------2-2-2------2-2-2------2-2-2---2----|
D|-------2----------2----------0--------0-----|
A|------0----------3--------------------------|
E|----------------------------3--------2------|

        A9         A9/C       G9       D/F#
E|--------------------------------------------|
B|--------0-0-0------0-0-0------0-0-0--3------|
G|---------2-2-2------2-2-2------2-2-2-2------|
D|-------2----------2----------0-------0------|
A|------0----------3--------------------------|
E|----------------------------3--------2------|

[Intro] A9  A9/C  G9  D/F#

[Primeira Parte]

A9
   Era só você ter
           A9/C
Pedido desculpas
G9
  E você já saiu pra rua
      D/F#
E beijou uma ou duas bocas
A9
   Que pode tá fazendo o mesmo
     A9/C
Com raiva de alguém do mesmo jeito
  G9
Que tá procurando se acalmar
       D/F#
Em um beijo alheio

[Pré-Refrão]

Dm
   Hoje eu acordei com
               F
A cabeça no lugar, ah
C
   Mas é que eu descobri
               G
Que você tava lá

Me obrigando a
      Dm        F
Terminar, ah ah

[Refrão]

C
   A briga foi feia

Teve dedo na cara
G
  Teve voz alterada

Teve tudo que tem
              Dm
Em uma discussão
        F
Mas eu não, eu não
                  C
Tava terminando, não
                        G
Você confundiu seu coração

C
   A briga foi feia

Teve dedo na cara
G
  Teve voz alterada

Teve tudo que tem
              Dm
Em uma discussão
        F
Mas eu não, eu não
                  C
Tava terminando, não
                        G
Você confundiu seu coração

Eu não tava terminando
 Dm
Não

( F  C  G )

[Pré-Refrão]

Dm
   Hoje eu acordei com
               F
A cabeça no lugar, ah
C
   Mas é que eu descobri
               G
Que você tava lá

Me obrigando a
      Dm        F
Terminar, ah ah

[Refrão]

C
   A briga foi feia

Teve dedo na cara
G
  Teve voz alterada

Teve tudo que tem
              Dm
Em uma discussão
        F
Mas eu não, eu não
                  C
Tava terminando, não
                        G
Você confundiu seu coração

C
   A briga foi feia

Teve dedo na cara
G
  Teve voz alterada

Teve tudo que tem
              Dm
Em uma discussão
        F
Mas eu não, eu não
                  C
Tava terminando, não
                        G
Você confundiu seu coração
                        Dm  F
Eu não tava terminando não
             C
A briga foi feia
Outros vídeos desta música
    763.494 exibições
    • Simplificar cifra
      • ½ Tom
      • A
      • Bb
      • B
      • C
      • Db
      • D
      • Eb
      • E
      • F
      • F#
      • G
      • Ab
    • Adicionar à lista

    Afinação da cifra

    Afinador online

      0 comentários

      Ver todos os comentários

      Entre para o Cifra Club PRO

      Tenha acesso a benefícios exclusivos no App e no Site

      • Chega de anúncios

      • Badges exclusivas

      • Mais recursos no app do Afinador

      • Atendimento Prioritário

      • Aumente seu limite de lista

      • Ajude a produzir mais conteúdo

      Cifra Club Pro

      Aproveite o Cifra Club com benefícios exclusivos e sem anúncios
      Cifra Club Pro
      Aproveite o Cifra Club com benefícios exclusivos e sem anúncios
      Ops (: Contenido disponible sólo en portugués.
      OK