Cifra Club

Cidade Vizinha

Henrique e Juliano

Cifra: Principal (violão e guitarra)
exibições 7.480
Tom: E (forma dos acordes no tom de D) Capotraste na 2ª casa
[Intro] G  G11+  G5  G6 
        D  D4  D  D9
        G  G11+  G5  G6 
        D  D4  D  D9

[Dedilhado]

   G        G11+     G5       G6
E|----------------------------0-----0-------|
B|-0-----0--2-----2--3-----3----------------|
G|-----0--------0--------0--------0---------|
D|---0--------0--------0--------0-----------|
A|------------------------------------------|
E|-3--------3--------3--------3-------------|

   D          D4         D        D9
E|-0h2-----2--2h3-----3--2-----2--0---------|
B|-------3----------3--------3--------3-2---|
G|-----2----------2--------2--------2-------|
D|-0----------0----------0--------0---------|
A|------------------------------------------|
E|------------------------------------------|

   G        G11+     G5       G6
E|----------------------------0-----0-------|
B|-0-----0--2-----2--3-----3----------------|
G|-----0--------0--------0--------0---------|
D|---0--------0--------0--------0-----------|
A|------------------------------------------|
E|-3--------3--------3--------3-------------|

   D          D4         D        D9
E|-0h2-----2--2h3-----3--2-----2--0---------|
B|-------3----------3--------3--------3-2---|
G|-----2----------2--------2--------2-------|
D|-0----------0----------0--------0---------|
A|------------------------------------------|
E|------------------------------------------|

[Solo]

E|------------------------------------------|
B|------------------------------------------|
G|-2/4--4/6--6/7--7/9--9/11--9/11\9\7-------|
D|------------------------------------------|
A|------------------------------------------|
E|------------------------------------------|

E|------------------------------------------|
B|------------------------------------------|
G|-2/4--4/6--6/7--2/4--2--7\----------------|
D|------------------------------------------|
A|----------------------------4/5-----------|
E|------------------------------------------|

[Primeira Parte]

   G        G11+     G5       G6
E|----------------------------0-----0-------|
B|-0-----0--2-----2--3-----3----------------|
G|-----0--------0--------0--------0---------|
D|---0--------0--------0--------0-----------|
A|------------------------------------------|
E|-3--------3--------3--------3-------------|

   D          D4         D        D9
E|-0h2-----2--2h3-----3--2-----2--0---------|
B|-------3----------3--------3--------3-2---|
G|-----2----------2--------2--------2-------|
D|-0----------0----------0--------0---------|
A|------------------------------------------|
E|------------------------------------------|

   G        G11+     G5       G6
E|----------------------------0-----0-------|
B|-0-----0--2-----2--3-----3----------------|
G|-----0--------0--------0--------0---------|
D|---0--------0--------0--------0-----------|
A|------------------------------------------|
E|-3--------3--------3--------3-------------|

   D          D4         D        D9
E|-0h2-----2--2h3-----3--2-----2--0---------|
B|-------3----------3--------3--------------|
G|-----2----------2--------2----------------|
D|-0----------0----------0--------0---------|
A|------------------------------------------|
E|------------------------------------------|

 G   G11+
Seis
G5                  G6              D    D4  D  D9
Essa é a hora que ela vai sair pra correr
   G   G11+
Depois
 G5               G6             D      D4  D  D9
Vai procurar alguma coisa leve pra comer

[Pré-Refrão]

  C9                   
Sua cabeça anda, sem ter tempo pra pensar
    Bm7(11)
Que antes era a gente       
E hoje é vida singular
    G   G11+  G5
E agora?

Pra quem tá solteiro
         D           D4  D  D9
Cidade grande é foda

[Refrão]

    Em7                   
Eu sei que ela ta na cidade vizinha
 G                              D   
Mas eu preciso da boca dela na minha
Ai ai ai ai
    Em7
Talvez essa hora, saiu do banho
 G                                D
Tá se arrumando pra sair com as amigas
Ai ai ai ai

   Em7  
Tomara que saia, dê tudo errado
   G                                   D
E volte mais cedo, sem ninguém do seu lado
Ô o o

   Em7            
Tomara que saia, dê tudo errado
   G                            D   D4  D  
E sinta saudades, aqui do meu quarto

( G  G11+  G5  G6 )
( D  D4  D  D9 )

   G        G11+     G5       G6
E|----------------------------0-----0-------|
B|-0-----0--2-----2--3-----3----------------|
G|-----0--------0--------0--------0---------|
D|---0--------0--------0--------0-----------|
A|------------------------------------------|
E|-3--------3--------3--------3-------------|

   D          D4         D        D9
E|-0h2-----2--2h3-----3--2-----2--0---------|
B|-------3----------3--------3--------3-2---|
G|-----2----------2--------2--------2-------|
D|-0----------0----------0--------0---------|
A|------------------------------------------|
E|------------------------------------------|

[Pré-Refrão]

  C9                   
Sua cabeça anda, sem ter tempo pra pensar
    Bm7(11)
Que antes era a gente       
E hoje é vida singular
    G   G11+  G5
E agora?

Pra quem tá solteiro
         D           D4  D  D9
Cidade grande é foda

[Refrão]

    Em7                   
Eu sei que ela ta na cidade vizinha
 G                              D   
Mas eu preciso da boca dela na minha
Ai ai ai ai
    Em7
Talvez essa hora, saiu do banho
 G                                D
Tá se arrumando pra sair com as amigas
Ai ai ai ai

   Em7  
Tomara que saia, dê tudo errado
   G                                   D
E volte mais cedo, sem ninguém do seu lado
Ô o o

   Em7            
Tomara que saia, dê tudo errado
   G                            D   D4  D  
E sinta saudades, aqui do meu quarto
Acordes para:

    0 comentários

    mostrar mais comentários

    Conseguiu tocar?

    2 tocaram 2 ainda não

    Grave um vídeo tocando Cidade Vizinha e mande pra gente!

    00:00 / 00:00
    outros vídeos desta música
    repetir qualidade Automático
    Outros vídeos desta música
    00:00 / 00:00
    Automático
    OK