Cifra Club

Cidade Vizinha

Henrique e Juliano

Cifra: Principal (violão e guitarra)
Selo Cifra Club: esta cifra foi revisada para atender aos critérios oficiais da nossa Equipe de Qualidade.
tom: A (forma dos acordes no tom de G) Capotraste na 2ª casa
[Intro] G  G11+  G5  G6 
        D  D4  D  D9
        G  G11+  G5  G6 
        D  D4  D  D9

[Dedilhado - Intro - 2X]

Parte 1 de 4
   G                    G11+      
E|------------------------------------------|
B|----------0--------------------2----------|
G|-------0-----0-----0--------0-----0-----0-|
D|----0-----------0--------0-----------0----|
A|------------------------------------------|
E|-3--------------------3-------------------|

Parte 2 de 4
   G5                   G6       
E|-------------------------------0----------|
B|----------3-------------------------------|
G|-------0-----0-----0--------0-----0-----0-|
D|----0-----------0--------0-----------0----|
A|------------------------------------------|
E|-3--------------------3-------------------|

Parte 3 de 4
    D                   D4  
E|--0h2-----------------2h3-----------------|
B|----------3--------3----------3--------3--|
G|-------2-----2-------------2-----2--------|
D|--0-------------0-----0-------------0-----|
A|------------------------------------------|
E|------------------------------------------|

Parte 4 de 4
    D                    D9
E|--0h2------------------0------------------|
B|----------3--------3------3--2------------|
G|-------2-----2----------------------------|
D|--0-------------0------0------------------|
A|------------------------------------------|
E|------------------------------------------|

[Tab - Solo Intro]

Parte 1 de 2
    G     G11+  G5    G6    D  D4  D      D9  
E|------------------------------------------|
B|------------------------------------------|
G|--2/4~--4/6~--6/7~--7/9~--9/11~--11\9--7~-|
D|------------------------------------------|
A|------------------------------------------|
E|------------------------------------------|

Parte 2 de 2
    G     G11+  G5    G6     D  D4   D    D9   
E|------------------------------------------|
B|--------------------------------3---------|
G|--2/4~--4/6~--6/7~--2/4~---2~-------------|
D|----------------------------------2-------|
A|-------------------------------------3/5~-|
E|------------------------------------------|

[Primeira Parte]

[Dedilhado - Primeira Parte - 2X]

Parte 1 de 4
   G                    G11+      
E|------------------------------------------|
B|----------0--------------------2----------|
G|-------0-----0-----0--------0-----0-----0-|
D|----0-----------0--------0-----------0----|
A|------------------------------------------|
E|-3--------------------3-------------------|

Parte 2 de 4
   G5                   G6       
E|-------------------------------0----------|
B|----------3-------------------------------|
G|-------0-----0-----0--------0-----0-----0-|
D|----0-----------0--------0-----------0----|
A|------------------------------------------|
E|-3--------------------3-------------------|

Parte 3 de 4
    D                   D4  
E|--0h2-----------------2h3-----------------|
B|----------3--------3----------3--------3--|
G|-------2-----2-------------2-----2--------|
D|--0-------------0-----0-------------0-----|
A|------------------------------------------|
E|------------------------------------------|

Parte 4 de 4
    D                    D9
E|--0h2------------------0------------------|
B|----------3--------3------3--2------------|
G|-------2-----2----------------------------|
D|--0-------------0------0------------------|
A|------------------------------------------|
E|------------------------------------------|

 G   G11+
Seis
G5                
Essa é a hora que 

  G6              D     
Ela vai sair pra correr

( D4  D  D9 )

   G   G11+
Depois
 G5               G6
Vai procurar alguma
             D      
Coisa leve pra comer

( D4  D  D9 )

[Pré-Refrão]

  C9                   
Sua cabeça anda 

Sem ter tempo pra pensar
    Bm7
Que antes era a gente 

E hoje é vida singular
    G    G11+  G5
E agora?

Pra quem tá solteiro
         D           D4  D  D9
Cidade grande é foda

[Refrão]

    Em7                   
Eu sei que ela ta na cidade vizinha
 G                              D   
Mas eu preciso da boca dela na minha
      D9 
Ai ai ai ai

    Em7
Talvez essa hora, saiu do banho
 G                                D
Tá se arrumando pra sair com as amigas
      D9 
Ai ai ai ai

   Em7  
Tomara que saia, dê tudo errado
   G              
E volte mais cedo
                    D
Sem ninguém do seu lado 
  D9
Ô o o

   Em7            
Tomara que saia, dê tudo errado
   G               
E sinta saudades
              D   D4  D
Aqui do meu quarto 

[Interlúdio] G  G11+  G5  G6 
             D  D4  D  D9 

[Dedilhado - Interlúdio]

Parte 1 de 4
   G                    G11+      
E|------------------------------------------|
B|----------0--------------------2----------|
G|-------0-----0-----0--------0-----0-----0-|
D|----0-----------0--------0-----------0----|
A|------------------------------------------|
E|-3--------------------3-------------------|

Parte 2 de 4
   G5                   G6       
E|-------------------------------0----------|
B|----------3-------------------------------|
G|-------0-----0-----0--------0-----0-----0-|
D|----0-----------0--------0-----------0----|
A|------------------------------------------|
E|-3--------------------3-------------------|

Parte 3 de 4
    D                   D4  
E|--0h2-----------------2h3-----------------|
B|----------3--------3----------3--------3--|
G|-------2-----2-------------2-----2--------|
D|--0-------------0-----0-------------0-----|
A|------------------------------------------|
E|------------------------------------------|

Parte 4 de 4
    D                    D9
E|--0h2------------------0------------------|
B|----------3--------3------3--2------------|
G|-------2-----2----------------------------|
D|--0-------------0------0------------------|
A|------------------------------------------|
E|------------------------------------------|

[Tab - Interlúdio]

Parte 1 de 2
   G    G11+ G5   G6   D    D4  D        D9  
E|------------------------------------------|
B|------------------------------------------|
G|-2/4~-4/6~-6/7~-7/9~-9/11~---11\9--7-7/9--|
D|------------------------------------------|
A|------------------------------------------|
E|------------------------------------------|

[Pré-Refrão]

  C9                   
Sua cabeça anda 

Sem ter tempo pra pensar
    Bm7
Que antes era a gente 

E hoje é vida singular
    G    G11+  G5
E agora?

Pra quem tá solteiro
         D           D4  D  D9
Cidade grande é foda

[Refrão]

    Em7                   
Eu sei que ela ta na cidade vizinha
 G                              D   
Mas eu preciso da boca dela na minha
      D9 
Ai ai ai ai

    Em7
Talvez essa hora, saiu do banho
 G                                D
Tá se arrumando pra sair com as amigas
      D9 
Ai ai ai ai

   Em7  
Tomara que saia, dê tudo errado
   G              
E volte mais cedo
                    D
Sem ninguém do seu lado 
  D9
Ô o o

   Em7            
Tomara que saia, dê tudo errado
   G               
E sinta saudades
              D   D4  D
Aqui do meu quarto
Outros vídeos desta música
    643.389 exibições
    • Simplificar cifra
      • ½ Tom
      • A
      • Bb
      • B
      • C
      • Db
      • D
      • Eb
      • E
      • F
      • F#
      • G
      • Ab
    • Adicionar à lista

    Afinação da cifra

    Afinador online

      0 comentários

      Ver todos os comentários

      Entre para o Cifra Club PRO

      Tenha acesso a benefícios exclusivos no App e no Site

      • Chega de anúncios

      • Badges exclusivas

      • Mais recursos no app do Afinador

      • Atendimento Prioritário

      • Aumente seu limite de lista

      • Ajude a produzir mais conteúdo

      Cifra Club Pro

      Aproveite o Cifra Club com benefícios exclusivos e sem anúncios
      Cifra Club Pro
      Aproveite o Cifra Club com benefícios exclusivos e sem anúncios
      Ops (: Contenido disponible sólo en portugués.
      OK