Cifra Club

Aprenda

Fim Ou Intervalo

Henrique e Juliano

Cifra: Principal (violão e guitarra)
tom: F#m (forma dos acordes no tom de Em) Capotraste na 2ª casa
[Intro] Am7  Em7  G  D9

E|------------------------------------------|
B|---------------5~-------------------------|
G|-4h5-4h5-4h5-4-----2h4-2h4-2h4-2-0--------|
D|-----------------------------------0------|
A|------------------------------------------|
E|------------------------------------------|

E|------------------------------------------|
B|------------------------------------------|
G|-2h4-2h4-2h4-2-0---0-0h2--2-4-4\2-0-------|
D|-----------------0------------------2-----|
A|------------------------------------------|
E|------------------------------------------|

[Primeira Parte]

Am7                   Em7
    Decide o que cê quer da sua vida
G                  D9 
  Tô precisando saber
                   Am7
Pra poder levar a minha

                   Em7
O ponteiro desse amor
                 G
Marca pouca gasolina
                      D9
Me beija de qualquer jeito
                  Am7
Quase nunca é de língua

[Pré-Refrão]

    Em7    
Toquei no seu corpo 
                 D9
E ele não me respondeu
                        Am7
Fingiu que não me conheceu
                   C
Seu coração tá querendo

Virar a cara pro meu

[Refrão]

    C 
Estratégia pra me deixar
        D9  
Me ignorar fazia parte
Em7                 
    Cê queria que eu terminasse
G
  Pra saudade me cobrar mais tarde
 C
Não vai ter colher de chá
    D9
Se não me quer, deixa eu de lado
   Em7
E se for sair deixa claro
   G
Se é fim ou intervalo
      C
Pra quando eu tiver com alguém
             D9
Nuns amasso bem dado
                  Em7
Cê não vir me enchendo o saco

[Solo] Am7  Em7  G  D9
       Am7  Em7  G  D9

E|------------------------------------------|
B|---------------5~-------------------------|
G|-4h5-4h5-4h5-4-----2h4-2h4-2h4-2-0--------|
D|-----------------------------------0------|
A|------------------------------------------|
E|------------------------------------------|

E|------------------------------------------|
B|------------------------------------------|
G|-2h4-2h4-2h4-2-0---0-0h2-0----------------|
D|-----------------0---------2/4------------|
A|------------------------------------------|
E|------------------------------------------|

E|-------------2h3p0--3p2-----0---0---------|
B|---0h3p0-3/5------------3/5---5-----------|
G|-2----------------------------------------|
D|------------------------------------------|
A|------------------------------------------|
E|------------------------------------------|

E|------------------------------------------|
B|-3p0------3--------------3---3------3---3-|
G|-----2/4----4\2p0----2/4---4----2/4---4---|
D|------------------2-----------------------|
A|------------------------------------------|
E|------------------------------------------|

E|------------------------------------------|
B|------------------------------------------|
G|-2p0------0h2-0---------------------------|
D|-----2p0--------2/4--4\2-0-0h2------------|
A|------------------------------------------|
E|------------------------------------------|

[Primeira Parte]

Am7                    Em7
    O ponteiro desse amor
                 G
Marca pouca gasolina
                      D9
Me beija de qualquer jeito
                  Am7
Quase nunca é de língua

[Pré-Refrão]

    Em7    
Toquei no seu corpo 
                 D9
E ele não me respondeu
                        Am7
Fingiu que não me conheceu
                   C
Seu coração tá querendo

Virar a cara pro meu

[Refrão]

    C 
Estratégia pra me deixar
        D9  
Me ignorar fazia parte
Em7                 
    Cê queria que eu terminasse
G
  Pra saudade me cobrar mais tarde
 C
Não vai ter colher de chá
    D9
Se não me quer, deixa eu de lado
   Em7
E se for sair deixa claro
   G
Se é fim ou intervalo
      C
Pra quando eu tiver com alguém
             D9
Nuns amasso bem dado
                  Em7
Cê não vir me enchendo o saco

      C
Pra quando eu tiver com alguém
             D9
Nuns amasso bem dado
                  Em7
Cê não vir me enchendo o saco

[Final] Am7  Em7  G  D9  Em7

E|------------------------------------------|
B|---------------3/5------------------------|
G|-4h5-4h5-4h5-4------2h4-2h4-2h4-2-0-------|
D|------------------------------------0-----|
A|------------------------------------------|
E|------------------------------------------|

E|------------------------------------------|
B|------------------------------------------|
G|-2h4-2h4-2h4-2-0---0-0h2--2p0-------------|
D|-----------------0------------4p0-0h2-----|
A|------------------------------------------|
E|------------------------------------------|
Composição de Danillo Dávilla / Diego Silveira / LARI FERREIRA
Colaboração e revisão:
18.110 exibições
    • ½ Tom
    • Am
    • Bbm
    • Bm
    • Cm
    • C#m
    • Dm
    • Ebm
    • Em
    • Fm
    • F#m
    • Gm
    • G#m
  • Adicionar à lista

    0 comentários

    Ver todos os comentários
    00:00 / 00:00
    outros vídeos desta música
    repetir qualidade Automático
    Outros vídeos desta música
    00:00 / 00:00
    Automático

    Cifra Club Pro

    Aproveite o Cifra Club com benefícios exclusivos e sem anúncios
    Cifra Club Pro
    Aproveite o Cifra Club com benefícios exclusivos e sem anúncios
    OK