Cifra Club

Rancorosa

Henrique e Juliano

Cifra: Principal (violão e guitarra)
Selo Cifra Club: esta cifra foi revisada para atender aos critérios oficiais da nossa Equipe de Qualidade.
tom: F
[Intro] Bb  Dm  C
        Gm  Dm  C       

[Tab - Intro]

Parte 1 de 3
                        Bb
E|------------------------------------------|
B|---------------------------6h8-8p6--------|
G|-7/9-9-9-9-9-9-9-9--9/10------------------|
D|-------------------------8----------------|
A|------------------------------------------|
E|------------------------------------------|

Parte 2 de 3
   Dm        C
E|------------------------------------------|
B|---5h6-5h6p5------------------------------|
G|------------------------------------------|
D|-7----------------------------------------|
A|------------------------------------------|
E|------------------------------------------|

Parte 1 de 3
                       Gm 
E|------------------------------------------|
B|---------------------------6h8-8p6--------|
G|-7/9-9-9-9-9-9-9-9--9/10------------------|
D|-------------------------8----------------|
A|------------------------------------------|
E|------------------------------------------|

Parte 03 de 03
   Dm        C
E|------------------------------------------|
B|- -5h6-5h6p5------------------------------|
G|--------------5/7-7\5---------------------|
D|-7----------------------------------------|
A|------------------------------------------|
E|------------------------------------------|

[Primeira Parte]

 F           C
Hoje eu acordei
                              Gm
Com uma vontade de mandar um texto
                         F/A        Bb
Do tamanho do mundo, mas eu não mandei
               F                 C
Escrevi e apaguei, escrevi, apaguei

[Pré-Refrão]

        Gm                     
Eu nem sei quantas vezes
                            Bb
O meu dedo foi no enviar, e eu desviei
C                      
  Se eu mando o que eu penso
             Gm
A gente não volta
                        Dm
Aí a foto dela some na hora
                            C/E  F
E se eu conheço bem aquela rancorosa

Vai ter copo
                           C
Vai ter foto com legenda: Vida nova

[Refrão]

                              Bb   Dm     
E toda vez que eu vou pra deixar ela
            C
Eu deixo quieto
                              Gm
Mas que às vezes dá vontade, dá
               Dm                   C
Te mandar pra longe, eu chego mais perto

                              Bb   Dm
E toda vez que eu vou pra deixar ela
            C
Eu deixo quieto
                              Gm
Mas que às vezes dá vontade, dá
               Dm                   C
Te mandar pra longe, eu chego mais perto

                         Gm
Não sei o que ela fez comigo
                    Dm
Sou um covarde assumido
              C/E  F   
O medo de te per__der
                               C
Os meus argumentos começam perdidos
                            Bb  
E aí, quem disse que eu envio?

[Solo] Dm  C  Gm  Dm  C

[Tab - Solo]

Parte 1 de 2
   Bb         Dm       C                  Gm
E|------------------------------------------|
B|---6h8-8p6---5h6-5h6p5--------------------|
G|-----------------------9-9-9-9-9-9-9-9/10-|
D|-8----------7-----------------------------|
A|------------------------------------------|
E|------------------------------------------|

Parte 2 de 2
           Dm          C  
E|------------------------------------------|
B|---6h8-8p6---5h6-5h6p5--------------------|
G|------------------------------------------|
D|-8----------7-----------------------------|
A|------------------------------------------|
E|------------------------------------------|

[Pré-Refrão]

C                      
  Se eu mando o que eu penso
             Gm
A gente não volta
                        Dm
Aí a foto dela some na hora
                            C/E  F
E se eu conheço bem aquela rancorosa

Vai ter copo
                                C
Vai ter foto com legenda: Vida nova

[Refrão]

                              Bb   Dm     
E toda vez que eu vou pra deixar ela
            C
Eu deixo quieto
                              Gm
Mas que às vezes dá vontade, dá
               Dm                   C
Te mandar pra longe, eu chego mais perto

                              Bb   Dm
E toda vez que eu vou pra deixar ela
            C
Eu deixo quieto
                              Gm
Mas que às vezes dá vontade, dá
               Dm                   C
Te mandar pra longe, eu chego mais perto

                         Gm
Não sei o que ela fez comigo
                    Dm
Sou um covarde assumido
              C/E  F   
O medo de te per__der
                               C
Os meus argumentos começam perdidos
                            Bb  Dm  C
E aí, quem disse que eu envio?
Outros vídeos desta música
    188.497 exibições
    • Simplificar cifra
      • ½ Tom
      • A
      • Bb
      • B
      • C
      • Db
      • D
      • Eb
      • E
      • F
      • F#
      • G
      • Ab
    • Adicionar à lista

    Afinação da cifra

    Afinador online

      0 comentários

      Ver todos os comentários

      Entre para o Cifra Club PRO

      Tenha acesso a benefícios exclusivos no App e no Site

      • Chega de anúncios

      • Badges exclusivas

      • Mais recursos no app do Afinador

      • Atendimento Prioritário

      • Aumente seu limite de lista

      • Ajude a produzir mais conteúdo

      Cifra Club Pro

      Aproveite o Cifra Club com benefícios exclusivos e sem anúncios
      Cifra Club Pro
      Aproveite o Cifra Club com benefícios exclusivos e sem anúncios
      Ops (: Contenido disponible sólo en portugués.
      OK