Cifra Club

Babel

Héroes Del Silencio

Cifra: Principal (violão e guitarra)
tom: E
  Intro (los siguientes acordes son power chords)

       F#    B      F#                B      F#                B      A#
E|-------------------------------------------------------------------------6--|
B|-----------------------7------------------------7---------------------------|
G|------6-6---4---8--6-----------6-3---4---8--6-----------6-6---4---8--6------|
D|--3/4-----4----------------3/4-----4----------------3/4-----4--------8------|
A|----------------------------------------------------------------------------|
E|----------------------------------------------------------------------------|

       B              C#           B                 D#m          C# F#
E|----------------------------------------------------------------------------|
B|----------------------------------------7-----------------------------------|
G|------8-----6--------6---6--------8------------10\8-8---------8--6----------|
D|----9---x-x---x-x-9--6---6------9---x-x---x-x-------8---------8--6--4-------|
A|--9---------------9-----------9-------------------------------6--4--4-------|
E|--------------------------------------------------------------------2-------|


nota: en los acordes de los versos y el puente se tocan power chords.


           F#
alguien jodió las calles

   E          B  E       F#        E  B
con prohibiciones de higiene mental

       E    F#
quién fabricó los colores,

      E          B  E     F#           Em   B E
fabricó las casillas que has de ocupar.



  A                  D
babel dividió el planeta,

                   E
encerró en sus mazmorras

               D
el nervio del sur

   A                  D
aquél que cerró las puertas

           F#m
levantando muros

           E
que no saltes tú.



          F#
alguien tomó en sus manos

     E          B    E     F#       E   B
las manos de todos, confirmó su ley

      E    F#
quién enseñó la doctrina,

 E       B     E       F#         E   B E
sabiduría que no los quita la sed.




  A              D
babel plantó banderas,

           E                   D
cantó los himnos en distintas lenguas

   A                 D              F#m
aquél que nos da trabajo y vino agrio

              E
que nos entretenga.



nota: en el estribillo se pueden confundir, porque otra guitarra
      toca varias partes del estribillo en el fondo.


 Estribillo (es muy facil, solo se ve un poco largo)

   D#m               A#                 D#m              A#
E|----------------------------------------------------------------------------|
B|--7-------------7---6--------------6---7------------7---6--------------6----|
G|--8---------------------------6-----------------8-----------------6---------|
D|--8--8-9-8-9h8----8----8-9-8-----8---8----8-9-8---8---8----8-9-8-----8---8--|
A|----------------------------------------------------------------------------|
E|----------------------------------------------------------------------------|

   G#m               C#                  G#m               C#
E|----------------------------------------------------------------------------|
B|--9---------9---7---6-------------------9---------6---7---6-------------6---|
G|------------------------------8-------------------------------------8-------|
D|-----8-9-8----8---8----8-9-8-----8-9-8-----8-9-8----8---8----8-9-8----8---8-|
A|----------------------------------------------------------------------------|
E|----------------------------------------------------------------------------|

   D#m               A#                 D#m              A#
E|----------------------------------------------------------------------------|
B|--7-------------7---6--------------6---7------------7---6--------------6----|
G|--8---------8-----------------6-----------------8-----------------6---------|
D|--8--8-9-8----8---8----8-9-8-----8---8----8-9-8---8---8----8-9-8-----8---8--|
A|----------------------------------------------------------------------------|
E|----------------------------------------------------------------------------|

   G#m               C#                  D#m                 C#
E|----------------------------------------------------------------------------|
B|--9---------9---7---6-------------------7---------------7---6-------7--6----|
G|------------------------------8---------------------8------------8----------|
D|-----8-9-8----8---8----8-9-8-----8-9-8-----8-9-8--8---8---8-----------------|
A|----------------------------------------------------------------------------|
E|----------------------------------------------------------------------------|


  Solo

   F#m           E       B     E     F#m       E   B       E       F#m
E|----------------------------------------------------------------------|
B|----------------------------------------------------------------------|
G|------------------------4---------------------------------------------|
D|--2/4-------4/7-6---6-7---7-6-4---6-----------------------------------|
A|--------------------------------7---4----7^(9)r---7p5-5-5-5\4---------|
E|--------------------------------------------------------------7-5-2---|

           E       B        E        F#m      E    B      E        A#
E|----------------------------------------------------------------------|
B|------------------------5---------------------------------------------|
G|------4/6-4---4-2-4^(6)---(6)r4-2---6---4^(6)r4---4-2----4-2----4/6---|
D|----4-----------------------------4-------------------4------4--------|
A|----------------------------------------------------------------------|
E|--2-------------------------------------------------------------------|

        D               E             D                                A#
E|--------------------------------------------------------------------------|
B|-------------------------------------7-------7/10-/12--12^(13)r-10--7/10--|
G|--6\4----------------------------6-9---9-6-9------------------------------|
D|--6\4--7-------7h9-7-6----6-7/9-------------------------------------------|
A|----------9------------7--------------------------------------------------|
E|--------------------------------------------------------------------------|

                          D                     F#m                   E
E|----------------------12-----------9-------12^(14)------(14)r12-(14)r12---|
B|--12-10----10-12^(14)----(14)r12-----12-10--------------------------------|
G|--------11----------------------------------------------------------------|
D|--------------------------------------------------------------------------|
A|--------------------------------------------------------------------------|
E|--------------------------------------------------------------------------|
Composição de Alan Boguslavsky / Enrique Bunbury / Joaquin Cardiel / Juan Valdivia / Pedro Andreu
3 exibições
    • ½ Tom
    • A
    • Bb
    • B
    • C
    • Db
    • D
    • Eb
    • E
    • F
    • F#
    • G
    • Ab
  • Adicionar à lista

    0 comentários

    Ver todos os comentários

    Conseguiu tocar?

    0 Tocaram 0 Ainda não

    Grave um vídeo tocando Babel e nos envie!

    00:00 / 00:00
    Outros vídeos desta música
    Repetir Qualidade Automático
    Outros vídeos desta música
    00:00 / 00:00
    Automático

    Cifra Club Pro

    Aproveite o Cifra Club com benefícios exclusivos e sem anúncios
    Cifra Club Pro
    Aproveite o Cifra Club com benefícios exclusivos e sem anúncios
    OK