Cifra Club

Aprenda

Chispa Adecuada

Héroes Del Silencio

Cifra: Principal (violão e guitarra)
tom: C
      Dm                       Am            Bb        F       C
E|--------------------------------------------------------------------|
B|--------------6---5------------5h6--5----------------1-1-1----------|
G|ú-------------------5-----------------5----------3------------------|
D|ú---------0--0---0---------0----------------------------------------|
A|---3-3h5----------------0---0------------0-1--1----1---3---1s3------|
E|--------------------------------------------------------------------|

      Dm                      Am           Bb
E|-----------------------------5------------------------------------|
B|--------------6---5-----------5-------------3------3--------------|
G|-------------------5-----------5----------------3--3--------------|
D|---------0--0---0---------0---------------------------------------|
A|---3-3h5----------------0-----------0-1--1----1----1--1s3---------|
E|------------------------------------------------------------------|

     Dm                       Am            Bb        F       C
E|-----------------------------------------------------------------------|
B|--------------6---5------------5h6--5----------------1-1-1-------------|
G|-------------------5-----------------5----------3----------------------|
D|---------0--0---0---------0--------------------------------------------|
A|---3-3h5----------------0---0------------0-1--1----1---3---1s3---------|
E|-----------------------------------------------------------------------|

     Dm                       Am            Bb        F
E|-----------------------------5--------------------------0---------------| |
B|--------------6---5-----------5-------------3------3--0---6-5s3---------| |
G|-------------------5-----------5----------------3--3------------2-------| |
D|---------0--0---0---------0---------------------------------------3-0---| |
A|---3-3h5----------------0-----------0-1--1----1----1--------------------| |
E|------------------------------------------------------------------------| |


Dm        Am              Bb
  Las palabras fueron avispas
         F     C    Dm
Y las calles como dunas
                Am           Bb     F   C
Cuando aun te espero llegar
Dm            Am             Bb
  En un ataud   guardo tu tacto y
        F
Una corona
C       Dm
 Con tu pelo enmarañado
   Am
Queriendo encontrar un
       Bb    Dm
Arco-iris    infinito

( D  F#m7  G  A  D   F#m7  G  A )

Dm                  Am            Bb
   Mis manos que aun  son de hueso
         C               Dm
Y tu vientre sabe a pan
            Am          Bb      F      C Dm
La catedral    es tu cuerpo
Dm                        Bb
   Eras verano y mil tormentas yo
        C
El leon
        Dm
Que sonrie a las paredes
       Am
Que he vuelto a pintar del
Bb          F
Mismo color

D            F#m         G
  No se distinguir entre besos y
       A
Raices
D            F#m            G
  No se distinguir lo complicado
             A
De lo simple
           D        F#m
Y ahora estas en mi lista de
   G                A
Promesas a olvidar
       D          F#m
Todo arde si le aplicas la chispa
  G             A
Adecuada

( Dm  Bb  C  Dm  C  Bb  C )
( Dm Bb  C  Dm  C  Bb  C )

Dm               Am            Bb
   El fuego que era a veces propio
       C            Dm
La ceniza siempre ajena
         Am           Bb
Blanca esperma resbalando por
     F           C
La espina dorsal
Dm              Am          Bb
   Ya somos mas viejos y sinceros
             C
Y que mas da
     Dm
Si miramos la 'laguna'
     Am                 Bb
Como llaman a la eternidad
F
De la ausencia

( Dm  Bb  C )
( Dm  C  Bb  C )
( Dm  Bb  C )
( Dm  C  Bb  C  Dm )
Composição de Héroes del Silencio
Colaboração e revisão:
  • FRANKEN CASTRO
19.348 exibições
    • ½ Tom
    • A
    • Bb
    • B
    • C
    • Db
    • D
    • Eb
    • E
    • F
    • F#
    • G
    • Ab
  • Adicionar à lista

    0 comentários

    Ver todos os comentários

    Conseguiu tocar?

    0 Tocaram 0 Ainda não

    Grave um vídeo tocando Chispa Adecuada e nos envie!

    00:00 / 00:00
    outros vídeos desta música
    repetir qualidade Automático
    Outros vídeos desta música
    00:00 / 00:00
    Automático

    Cifra Club Pro

    Aproveite o Cifra Club com benefícios exclusivos e sem anúncios
    Cifra Club Pro
    Aproveite o Cifra Club com benefícios exclusivos e sem anúncios
    OK