Cifra Club

Aprenda

Pra Vida Inteira

Hevo84

Cifra: Principal (violão e guitarra)
tom: E
Intro:
e|-------------------------------------------------------------------
B|---55-4---55-45---55-45-7545---------------------------------------
G|---44-4---44-44---44-44-4444---------------------------------------
D|-------------------------------------------------------------------
A|----------------0--------------------------------------------------
E|-0------0----------------------------------------------------------

e|-------------------------------------------------------------------
B|---55-4---55-45---55-45-75-5h7p5-45--------------------------------
G|---44-4---44-44---44-44-44-4-----44--------------------------------
D|-------------------------------------------------------------------
A|----------------0--------------------------------------------------
E|-0------0----------------------------------------------------------

E          F#m
só você me fez notar
G#m                     A
da vida eu só levo um coração
E           F#m
só você me deu uma resposta
G#m                                A
e eu percebi que tinha tudo em volta

       G#5            A5
mas disperdicei,não dei valor
  F#5                        B9
o mundo era perfeito pra nós dois
           G#5
não vou me abandonar 
           A5
nem deixar pra depois
        F#5                       B5
talvez ainda esteja em tempo de recomeçar

      C#5
só se for
                         C#5                   
então vai ser pra vida inteira
              A5
assim dessa maneira
                E5
eu quero o teu amor
     G#5
teu amor,só se for

solo(repete varies vezes)

e|-------------------------------------------------------------------
B|-540-540-540-540-540-540-54--54--54--54--54--54--------------------
G|-------------------------------------------------------------------
D|---------------------------6---6---6---6---6---6-------------------
A|-------------------------------------------------------------------
E|-------------------------------------------------------------------
Compositor não encontrado.
Colaboração e revisão:
  • marcos starosky
24.044 exibições
    • ½ Tom
    • A
    • Bb
    • B
    • C
    • Db
    • D
    • Eb
    • E
    • F
    • F#
    • G
    • Ab
  • Adicionar à lista

    0 comentários

    Ver todos os comentários

    Conseguiu tocar?

    1 Tocaram 0 Ainda não

    Grave um vídeo tocando Pra Vida Inteira e nos envie!

    00:00 / 00:00
    Outros vídeos desta música
    Repetir Qualidade Automático
    Outros vídeos desta música
    00:00 / 00:00
    Automático

    Cifra Club Pro

    Aproveite o Cifra Club com benefícios exclusivos e sem anúncios
    Cifra Club Pro
    Aproveite o Cifra Club com benefícios exclusivos e sem anúncios
    OK