Cifra Club

Aprenda

Relutante

Hevo84

Cifra: Principal (violão e guitarra)
tom: G
Introdução: 2 Vezes
     G                     G/F
E|-----------------------------------------------------------
B|--8-8-8-8-8-8-8----8-8-8-8-8-8-8-8-------------
G|--7-7-7-7-7-7-7----7-7-7-7-7-7-7-7--------------
D|--5-5-5-5-5-5-5----4-4-4-4-4-4-4-4---------------
A|-----------------------------------------------------------
E|-----------------------------------------------------------


G              G/F
Todos os meus erros
G           G/F         C9
Todos os acertos e detalhes
C9
Me trouxeram até aqui
G            G/F
Todos os segredos
G          G/F       C
Todos os amigos e lugares
  C9
Me ensinaram onde ir

Am7
E eu não mudaria nada
            D9
Pois esse tudo novo pode não incluir você
Am7
E eu prefiro na verdade
            D
Pois já faz parte
                        C   C9             D
Relutante eu aprendo a viver, aprendo a viver

Refrão
       C9       D9              E
Eu faria tudo por você mais uma vez
      C9        D9             E
Eu faria tudo por você mais uma vez
       C        D
Eu prefiro imaginar
         G/B     D9    E
Que sorrindo eu vou estar, pois
      C9       D               G
Eu faria tudo por você mais uma vez


G              G/F
Todos os meus erros
G           G/F         C9
Todos os acertos e detalhes
C9
Me trouxeram até aqui
G            G/F
Todos os segredos
G          G/F       C
Todos os amigos e lugares
  C9
Me ensinaram onde ir

Am7
E eu não mudaria nada
            D9
Pois esse tudo novo pode não incluir você
Am7
E eu prefiro na verdade
            D
Pois já faz parte
                        C   C9             D
Relutante eu aprendo a viver, aprendo a viver

Refrão
       C9       D9              E
Eu faria tudo por você mais uma vez
      C9        D9             E
Eu faria tudo por você mais uma vez
       C        D
Eu prefiro imaginar
         G/B     D9    E
Que sorrindo eu vou estar, pois
      C9       D               G
Eu faria tudo por você mais uma vez

Final


E|----------------------------------------------------------------------------------------
B|--8-8-8-8-8-8-8----8-8-8-8-8-8-8-8--8-8-8-8-8-8-8-8---8-8-8-8-8-8-8-8
G|--7-7-7-7-7-7-7----7-7-7-7-7-7-7-7---7-7-7-7-7-7-7-7--7-7-7-7-7-7-7-7
D|--5-5-5-5-5-5-5----4-4-4-4-4-4-4-4---5-5-5-5-5-5-5---4-4-4-4-4-4-4-4--
A|----------------------------------------------------------------------------------------
E|----------------------------------------------------------------------------------------

E|------------------------------------------------------------------------------
B|---3-3-3-3-3-3-3--3-3-3-3-3-3-3--3-3-3-3-3-3-3--3-3-3-3-3-3-3
G|--5-5-5-5-5-5-5---4-4-4-4-4-4-4--5-5-5-5-5-5-5--4-4-4-4-4-4-4
D|--5-5-5-5-5-5-5----5-5-5-5-5-5-5--5-5-5-5-5-5-5--5-5-5-5-5-5-5
A|---------------------------------------------------------------------------
E|----------------------------------------------------------------------------
Composição de Renne Fernandes
Colaboração e revisão:
  • renan jk
549 exibições
    • ½ Tom
    • A
    • Bb
    • B
    • C
    • Db
    • D
    • Eb
    • E
    • F
    • F#
    • G
    • Ab
  • Adicionar à lista

    0 comentários

    Ver todos os comentários

    Conseguiu tocar?

    1 Tocaram 0 Ainda não

    Grave um vídeo tocando Relutante e nos envie!

    00:00 / 00:00
    Outros vídeos desta música
    Repetir Qualidade Automático
    Outros vídeos desta música
    00:00 / 00:00
    Automático

    Cifra Club Pro

    Aproveite o Cifra Club com benefícios exclusivos e sem anúncios
    Cifra Club Pro
    Aproveite o Cifra Club com benefícios exclusivos e sem anúncios
    OK