Notificações Amigos pendentes

      Hillsong Live

      I Surrender

      47.265 exibições
      Tom: F
      Intro: Dm  F  C  Bb
      
      
      E|---------------------------------|
      B|---6---6---6---6---6---6---5-----|
      G|-----------------------------7-5-| 2x 
      D|-7---7---7---7---7---7-----------|
      A|---------------------------------|
      E|---------------------------------| 
      
      
      E|---------------------------------|
      B|---6---6---6---6---6---6---5-----|
      G|-----------------------------7-5-|
      D|-5---5---5---5---5---5-----------|
      A|---------------------------------|
      E|---------------------------------|
      
      
      E|---------------------------------|
      B|---6---6---6---6---6---6---5-----|
      G|-----------------------------7-5-|
      D|-8---8---8---8---8---8-----------|
      A|---------------------------------|
      E|---------------------------------|
      
      
      Verso:
      
      Dm
      Here I am
                 F
      Down on my knees again
                   C
      Surrendering all
             Bb
      Surrendering all
      
      Dm
      Find me here
                  F
      Lord as You draw me near
                    C
      Desperate for You
       Bb
      Desperate for You
           Dm
      I surrender
      
      Dm
      Drench my soul
                   F
      As mercy and grace unfold
                   C
      I hunger and thirst
         Bb
      I hunger and thirst
      
      Dm
      With arms stretched wide
                 F
      I know You hear my cry
                  C
      Speak to me now
        Bb
      Speak to me now
      
        Dm
      I surrender
        F
      I surrender
               Gm
      I wanna know You more
               Bb
      I wanna know You more
      
      Stick
             Bb      F
      Like a rushing wind
             C
      Jesus breathe within
                     Gm
      Lord have your way
                     Dm     C
      Lord have your way in me
      
             Bb     F
      Like a mighty storm
              C
      Stir within my soul
                     Gm
      Lord have your way
                     Dm     C
      Lord have your way in me
      
      
      E|-18-17-15-----18-17-15-13-12---|
      B|-------------------------------| 7x
      G|-------------------------------|
      D|-------------------------------|
      A|-------------------------------|
      E|-------------------------------|
      
      
             Bb      F
      Like a rushing wind
             C
      Jesus breathe within
                     Gm
      Lord have your way
                     Dm     C
      Lord have your way in me
      
             Bb     F
      Like a mighty storm
              C
      Stir within my soul
                     Gm
      Lord have your way
                     Dm     C
      Lord have your way in me
      
      
      E|---------------------------------|
      B|---6---6---6---6---6---6---5-----|
      G|-----------------------------7-5-| 2x 
      D|-7---7---7---7---7---7-----------|
      A|---------------------------------|
      E|---------------------------------| 
      
      
      E|---------------------------------|
      B|---6---6---6---6---6---6---5-----|
      G|-----------------------------7-5-|
      D|-5---5---5---5---5---5-----------|
      A|---------------------------------|
      E|---------------------------------|
      
      
      E|---------------------------------|
      B|---6---6---6---6---6---6---5-----|
      G|-----------------------------7-5-|
      D|-8---8---8---8---8---8-----------|
      A|---------------------------------|
      E|---------------------------------|
      
        Composição: Matt CrockerColaboração e revisão:
        • joaoviictorsr
        • nata.rodrigo
        • Klaus
        • victorenix
        • +3

        Comentários 5

        140 .
        • Slade Slade: Em 24/03/2016 15:16

          B|---6---6---6---6---6---6---5-----|
          G|-----------------------------7-5-| 2x
          D|-7-------7-------7---------------|
          Achei que assim ficou mai

        • Wellington Wellington: Em 01/12/2015 14:22

          Boa tarde

          Najla, está tablatura é a correta?

        • Najla Najla: Em 26/02/2015 14:59

          Acabei de corrigir a tablatura, estava muito confusa, estou aguardando a verificação do site...

        • Lucas Lucas: Em 04/11/2014 18:50

          A tablatura ta muito errada

        • nata.rodrigo nata.rodrigo: Em 07/06/2014 17:10

          Essa tablatura tá ao contrário... kkk
          vou tentar editar...

        140 cancelar

        conseguiu tocar?

        • •••

        covers

        Grave um vídeo tocando I Surrender e mande pra gente!

        Ex.: http://www.youtube.com/watch?v=0IvSvIwGdwk
        ver covers de outras músicas »
        0:00 / 0:00

        Capítulos

          1 versão de violão dificuldade exibições contribuição e correção
          1 versão de guitarra dificuldade exibições contribuição e correção
          1 versão de cavaco dificuldade exibições contribuição e correção
          1 versão de teclado dificuldade exibições contribuição e correção
          play/pausefechar subir/descer velocidade
          6ª corda E5ª corda A4ª corda D3ª corda G2ª corda B1ª corda E
            acordes
            publicidade
            fechar
            ok