Enviar cifraEntrar

I Surrender

Hillsong Live

Cifra: Principal
exibições 52.866
Tom: F
Intro: Dm  F  C  Bb


E|---------------------------------|
B|---6---6---6---6---6---6---5-----|
G|-----------------------------7-5-| 2x 
D|-7---7---7---7---7---7-----------|
A|---------------------------------|
E|---------------------------------| 


E|---------------------------------|
B|---6---6---6---6---6---6---5-----|
G|-----------------------------7-5-|
D|-5---5---5---5---5---5-----------|
A|---------------------------------|
E|---------------------------------|


E|---------------------------------|
B|---6---6---6---6---6---6---5-----|
G|-----------------------------7-5-|
D|-8---8---8---8---8---8-----------|
A|---------------------------------|
E|---------------------------------|


Verso:

Dm
Here I am
           F
Down on my knees again
             C
Surrendering all
       Bb
Surrendering all

Dm
Find me here
            F
Lord as You draw me near
              C
Desperate for You
 Bb
Desperate for You
     Dm
I surrender

Dm
Drench my soul
             F
As mercy and grace unfold
             C
I hunger and thirst
   Bb
I hunger and thirst

Dm
With arms stretched wide
           F
I know You hear my cry
            C
Speak to me now
  Bb
Speak to me now

  Dm
I surrender
  F
I surrender
         Gm
I wanna know You more
         Bb
I wanna know You more

Stick
       Bb      F
Like a rushing wind
       C
Jesus breathe within
               Gm
Lord have your way
               Dm     C
Lord have your way in me

       Bb     F
Like a mighty storm
        C
Stir within my soul
               Gm
Lord have your way
               Dm     C
Lord have your way in me


E|-18-17-15-----18-17-15-13-12---|
B|-------------------------------| 7x
G|-------------------------------|
D|-------------------------------|
A|-------------------------------|
E|-------------------------------|


       Bb      F
Like a rushing wind
       C
Jesus breathe within
               Gm
Lord have your way
               Dm     C
Lord have your way in me

       Bb     F
Like a mighty storm
        C
Stir within my soul
               Gm
Lord have your way
               Dm     C
Lord have your way in me


E|---------------------------------|
B|---6---6---6---6---6---6---5-----|
G|-----------------------------7-5-| 2x 
D|-7---7---7---7---7---7-----------|
A|---------------------------------|
E|---------------------------------| 


E|---------------------------------|
B|---6---6---6---6---6---6---5-----|
G|-----------------------------7-5-|
D|-5---5---5---5---5---5-----------|
A|---------------------------------|
E|---------------------------------|


E|---------------------------------|
B|---6---6---6---6---6---6---5-----|
G|-----------------------------7-5-|
D|-8---8---8---8---8---8-----------|
A|---------------------------------|
E|---------------------------------|
  • 1
  • 2
  • 3
  • 4
  • 5
  • 6
  • 7
  • 8
  • 9
  • 10
  • 11
  • 12
    Acordes para:
      Composição: Matt CrockerColaboração e revisão:

      0 comentários

        mostrar mais comentários

        Conseguiu tocar?

        10tocaram1ainda não

        Grave um vídeo tocando I Surrender e mande pra gente!

        00:00 / 00:00
        outros vídeos desta música
        repetirqualidadeautomática
        • automática
        Outro vídeos desta música
          00:00 / 00:00
          automática
          • automática
          Acordes para:violão e guitarra
          dificuldadeexibiçõescontribuições
          fecharplay/pause subir/descer velocidade
            acordes
            fechar
            OK
            Feedback