Cifra Club

And Love Said No

Him

Cifra: Versão 4 (violão e guitarra)
tom: G
Tabbed by: Jen 
Email:*

Tuning: Drop D

INTRO

Guitar 1 Acoustic                                             (~~~)  
e|--3----3----------0-------2--------------------0------------------|
B|----0------0--------0--------0---------3----0-------3------0------|
G|--0-----0-----0-------0---------0-------0-----------0-------------|
D|------------------------------------------------------------------|x6
A|------------------------------------------------------------------|
D|------------------------------------------------------------------|
Guitar 2 comes in the second repeat
                                e|----------------------------------|
                                B|----------------------------------|
                                G|----------------------------------|
                                D|-4b(5)-----------4b(5)-----2------|
                                A|-4b(5)-----------4b(5)-----2------|
                                D|-4b(5)-----------4b(5)-----2------|
(Guitar 2 continutes for rest of repeats with..)
e|------------------------------------------------------------------|
B|------------------------------------------------------------------|
G|------------------------------------------------------------------|
D|--2-----------------------0---------------------------------------|
A|--2x8---------------------0x8-------------------------------------|
D|--2-----------------------0---------------------------------------|

(..Guitar 2 still)
e|------------------------------------------------------------------|
B|------------------------------------------------------------------|
G|--5---------------------------------------------------------------|
D|--5X8---------------------5----------------4b(5)4b(5)-------------|
A|--3-----------------------5X8--------------4b(5)4b(5)-------------|
D|--------------------------5----------------4b(5)4b(5)-------------|

VERSE 1- Only drum, bass and keyboard riff.

And loves light blue
Led me to you
Through all the emptiness that had become my home
Love's lies cruel
Introduced me to you
And that moment I knew I was out of hope...CHORUS (distorted )
                                        e|--------------------------|
                                        B|--------------------------|
                                        G|--------------------------|
                                        D|-4b(5)----4b(5)-----2-----|
                                        A|-4b(5)----4b(5)-----2-----|
                                        D|-4b(5)----4b(5)-----2-----|
  Kill~~    me~~  I begged and love said no~~
  Leave~    me~~  For dead and let me go ~~
e|------------------------------------------------------------------|
B|------------------------------------------------------------------|
G|------------------5-----------------------------------------------|
D|--2-------0-------5x8-------------------5----4b(5)4b(5)--2--------|
A|--2x8-----0x8-----3---------------------5x4--4b(5)4b(5)--2--------|
D|--2-------0-----------------------------5----4b(5)4b(5)--2--------|

  Kill~~    me~~  I cried and love said no~~
e|------------------------------------------------------------------|
B|------------------------------------------------------------------|
G|------------------5-----------------------------------------------|
D|--2-------4-------5x8-------------------5----4b(5)4b(5)--2--------|
A|--2x8-----4x8-----3---------------------5x4--4b(5)4b(5)--2--------|
D|--2-------4-----------------------------5----4b(5)4b(5)--2--------|

Kill~~    me~~  I cried and love said no~~
e|------------------------------------------------------------------|
B|------------------------------------------------------------------|
G|------------------5-----------------------------------------------|
D|--2-------4-------5x8---------------5----4----2~~---4b(5)4b(5)--2-|
A|--2x8-----4x8-----3-----------------5x4--4x4--2~~---4b(5)4b(5)--2-|
D|--2-------4-------------------------5----4----2~~---4b(5)4b(5)--2-|

Throughout the chorus Guitar 1 plays the intro riff


VERSE 2

Love's icy tomb
Dug open for you
Lies in a cemetery that bares my name
Love's violent tune
From me to you
Rips your heart out and leaves you
Bleeding with a smile on your face..

CHORUS

After the chorus there is the guitar bit which is:

e|--------------------------------------------|
B|--------------------------------------------|
G|--------------------------------------------|
D|-2-2---5-4--2-2---5-4--2-2---5-4---7-77--10-|x2
A|-2-2---5-4--2-2---5-4--2-2---5-4---7-77--10-|
D|-2-2---5-4--2-2---5-4--2-2---5-4---7-77--10-| 

after last time play 
e|--------|
B|--------|
G|--------|
D|-5-4-2~-|
A|-5-4-2~-|
D|-5-4-2~-|


VERSE 3
Loves light blue
Took me from you
And that moment I knew I was out of hope
Again

CHORUS

END WITH:
Love said no
And love said no

at the same time as:
e|--3--0---1-------|
B|--------------3--|
G|-----------------|
D|-----------------|repeat until end
A|-----------------|
D|-----------------|

| /  slide up
| \  slide down
| h  hammer-on
| p  pull-off
| ~  vibrato
| +  harmonic
| x  Mute note
============================================================================
00:00 / 00:00
Outros vídeos desta música
Repetir
Outros vídeos desta música
Composição de Ville Valo
546 exibições
    • ½ Tom
    • A
    • Bb
    • B
    • C
    • Db
    • D
    • Eb
    • E
    • F
    • F#
    • G
    • Ab
  • Adicionar à lista

    0 comentários

    Ver todos os comentários

    Conseguiu tocar?

    0 Tocaram 0 Ainda não

    Grave um vídeo tocando And Love Said No e nos envie!

    00:00 / 00:00

    Cifra Club Pro

    Aproveite o Cifra Club com benefícios exclusivos e sem anúncios
    Cifra Club Pro
    Aproveite o Cifra Club com benefícios exclusivos e sem anúncios
    OK