Cifra Club

Aprenda

Wicked Game

Him

Cifra: Completa (violão e guitarra)
tom: A
 Main Riff 1:
                                                        
E|---------------------------------------------------|-------------|-----------------|
B|----.-.-.-.-.-.-.------.-.-.-.-.-.-.---------------|-------------|-----------------|
G|--4-4-4-4-4-4-4-4----2-2-2-2-2-2-2-2------.-.-.-.--|---1-s-2---1-|--.-.-.-.---.-.--|
D|--4-4-4-4-4-4-4-4----2-2-2-2-2-2-2-2----2-2-2-2-2--|-4-------4---|--2-2-2-2-2-2-2--|
A|--2-2-2-2-2-2-2-2----0-0-0-0-0-0-0-0----2-2-2-2-2--|-------------|--2-2-2-2-2-2-2--|
E|----------------------------------------0-0-0-0-0--|-------------|--0-0-0-0-0-0-0--|

 Main Riff 2:

E|-------------------------------------------------------------------------|
B|-------------------------------------------------------------------------|
G|--.-.-.-.-.-.-.-.---.-.-.-.-.-.-.-.--------------------------------------|
D|--4-4-4-4-4-4-4-4---2-2-2-2-2-2-2-2---.-.-.-.-.-.-.-.-.-.-.-.-.----------|
A|--2-2-2-2-2-2-2-2---0-0-0-0-0-0-0-0---2-2-2-2-2-2-2-2-2-2-2-2-2----------|
E|--------------------------------------0-0-0-0-0-0-0-0-0-0-0-0-0----------|
   
 Pre chorus 1: (Tocar antes do chorus)    
                                                    
E|--------------------------------------|          
B|--------------------5---5-------------|
G|--------2---1-s-4-----4---4-----------|
D|--2-s-4---4---------------------------|
A|--------------------------------------|
E|--------------------------------------|

 Chorus 2:

  (Chords) (Bm)            (A)              (E)
E|----2-----0-----2-|--0-----0------0-|-----0-------------------0-----0------0--|
B|------3-----3-----|----2-----3------|-------0-------------------0-----0-------|
G|--------4-----4---|------2-----2----|---------1-------2-----------1-----1-----|
D|-4-(let ring)-----|2----------------|--2--------2-s-4---4--2------------------|
A|-2-(--------)-----|0----------------|--2-------------------2------------------|
E|------------------|-----------------|--0-------------------0------------------|

 Interlude:

E|--------2-----0----------------------------------------------------------|
B|----------3-----3----2~-----------------------------------------5---5----|
G|--2-s-4-----4-----2------4~--2b--1h-2-1h-2-1h-2-1h-2--2-s-1-s4----4---4--|
D|-------------------------------------------------------------------------|
A|-------------------------------------------------------------------------|
E|-------------------------------------------------------------------------|

Bridge:
    (Bm) (A)   (Em)
E|--2----0-----0---|
B|--3----2-----0---|
G|--4----2-----1---|
D|--4----2-----2---|
A|--2----0-----2---|
E|--2----0-----0---|

   Solo:
E|---------------------------------------------------|
B|-----------------------------5---------------------|
G|---1~---9-b--9-b----9-bv---4---4---------2~--1~----| x2
D|----------------------------------2-s-4------------|
A|---------------------------------------------------|
E|---------------------------------------------------|

E|----------2-----0--------------------------------------------------------------------|
B|------------3-----3---2------------------------------------------------5----5------5-|
G|---2-s-4------4-----2----4~--2-b--1h-2-1h-2-1h-2-1h-2----2-s-1-s-4--------4---4--4---|
D|-------------------------------------------------------------------------------------|
A|-------------------------------------------------------------------------------------|
E|-------------------------------------------------------------------------------------|

E|-----------2-----0----------------------|
B|-------------3-----3----2---------------|
G|--2-s-4--------4-----2-----4~-2b--1~----|
D|----------------------------------------|
A|----------------------------------------|
E|----------------------------------------|
Composição de Chris Isaak
Colaboração e revisão:
  • Matheus Augusto
1.240 exibições
    • ½ Tom
    • A
    • Bb
    • B
    • C
    • Db
    • D
    • Eb
    • E
    • F
    • F#
    • G
    • Ab
  • Adicionar à lista

    0 comentários

    Ver todos os comentários

    Conseguiu tocar?

    1 Tocaram 0 Ainda não

    Grave um vídeo tocando Wicked Game e nos envie!

    00:00 / 00:00
    Outros vídeos desta música
    Repetir Qualidade Automático
    Outros vídeos desta música
    00:00 / 00:00
    Automático

    Cifra Club Pro

    Aproveite o Cifra Club com benefícios exclusivos e sem anúncios
    Cifra Club Pro
    Aproveite o Cifra Club com benefícios exclusivos e sem anúncios
    OK