Cifra Club

Devuélveme A Mi Chica

Hombres G

Cifra: Principal (violão e guitarra)
Selo Cifra Club: esta cifra foi revisada para atender aos critérios oficiais da nossa Equipe de Qualidade.
tom: Dm
[Intro] Dm  Am  Dm  Am  

[Primeira Parte]

Dm                              Am
   Estoy llorando en mi habitación
Dm                           Am  G#m
   Todo se nubla a mi alrededor
Gm                          Dm  Am  G#m
   Ella se fue con un niño pijo
Gm                           Am  
   Tiene un ford fiesta blanco

Y un jersey amarillo

Dm                          Am
   Por el parque los veo pasar
Dm                            Am  G#m
   Cuando se besan lo paso fatal
Gm                          Dm  Am  G#m
   Voy a vengarme de ese marica
Gm                         Am  
    Voy a llenarle el cuello

De polvos pica pica

[Refrão] 

 Bb       F
Sufre, mamón
    Bb            F
Devuélveme a mi chica
   Bb        F
O te retorcerás
       Gm          C
Entre polvos pica-pica 

 Bb       F
Sufre, mamón
    Bb            F
Devuélveme a mi chica
   Bb        F
O te retorcerás
       Gm          C
Entre polvos pica-pica 

[Solo] Dm  Am  Dm  Am 
       Gm  Am  Dm  Am

[Tab - Solo]

Parte 1 de 5
E|-9---5------------------------------------|
B|-------6---8b10-b10r8p6-7-/10-10----------|
G|------------------------------------------|
D|------------------------------------------|
A|------------------------------------------|
E|------------------------------------------|

Parte 2 de 5
E|-10-10--13-10/----------------------------|
B|-10-10--10-10/--10-10-10-10-10-10-13-10---|
G|-10-10-----10/--10-12-10-12-10-10-10-10---|
D|------------------------------------------|
A|------------------------------------------|
E|------------------------------------------|

Parte 3 de 5
E|-5-4-3-------------------------10---------|
B|-5-4-3------8------------------10---------|
G|-5-4-3----7---7----------------10---------|
D|-7-6-5----------8~--------8/12------------|
A|-------------------10--10-----------------|
E|------------------------------------------|

Parte 4 de 5
E|---10------------10-5-3-------------------|
B|------10---------10-5-3----8--------------|
G|-10------10~-----10-5-3--7---7------------|
D|-------------12--12-7-5--------8~---------|
A|----------------------------------10------|
E|------------------------------------------|

Parte 5 de 5
E|------------------------------------------|
B|------------------------------------------|
G|------------------------------------------|
D|------------------------------------------|
A|-10-11-12---------------------------------|
E|------------------------------------------|

[Segunda Parte]

Dm                    Am
   Le quemamos su jersey
Dm                         Am  G#m 
   Se ha comprado cinco o seis
Gm                       Dm   Am  G#m 
   Voy a destrozarle el coche
Gm                  Am
   Lo tengo preparado

Voy esta noche

Dm                            Am
   No te reirás nunca más de mi
Dm                         Am
   Lo siento nene vas a morir
Gm                                Dm  Am  G#m
   Hoy me quitaste lo que más quería
Gm                 Am
   Y volverá conmigo

Volverá algún día

[Refrão] 

 Bb       F
Sufre, mamón
    Bb            F
Devuélveme a mi chica
   Bb        F
O te retorcerás
       Gm          C
Entre polvos pica-pica 

 Bb       F
Sufre, mamón
    Bb            F
Devuélveme a mi chica
   Bb        F
O te retorcerás
       Gm          C
Entre polvos pica-pica 

 Bb       F
Sufre, mamón
    Bb            F
Devuélveme a mi chica
   Bb        F
O te retorcerás
       Gm          C
Entre polvos pica-pica 

 Bb       F
Sufre, mamón
    Bb            F
Devuélveme a mi chica
   Bb        F
O te retorcerás
       Gm          C   C#°  Dm
Entre polvos pica-pica 
Outros vídeos desta música
    149.145 exibições
    • Simplificar cifra
      • ½ Tom
      • Am
      • Bbm
      • Bm
      • Cm
      • C#m
      • Dm
      • Ebm
      • Em
      • Fm
      • F#m
      • Gm
      • G#m
    • Adicionar à lista

    Afinação da cifra

    Afinador online

      0 comentários

      Ver todos os comentários

      Entre para o Cifra Club PRO

      Tenha acesso a benefícios exclusivos no App e no Site

      • Chega de anúncios

      • Mais recursos no app do Afinador

      • Atendimento Prioritário

      • Aumente seu limite de lista

      • Ajude a produzir mais conteúdo

      Cifra Club Pro

      Aproveite o Cifra Club com benefícios exclusivos e sem anúncios
      Cifra Club Pro
      Aproveite o Cifra Club com benefícios exclusivos e sem anúncios
      OK