Cifra Club

Aprenda

Temblando

Hombres G

Cifra: Principal (violão e guitarra)
tom: F#m
[Intro]

      A                   D      E
E|-------0---0--9--7--5---------------0-----------------------------|
B|--2--------------------3-------0----------------------------------|
G|-----2-------------------2-------1--------------------------------|
D|-----------------------0-------2----------------------------------|
A|--0---------------------------------------------------------------|
E|------------------------------------------------------------------|
      A                   D      E
E|-------0---0--9--7--5---------------0-----------------------------|
B|--2--------------------3-------0----------------------------------|
G|-----2-------------------2-------1--------------------------------|
D|-----------------------0-------2----------------------------------|
A|--0---------------------------------------------------------------|
E|------------------------------------------------------------------|

    A           D    E      A
Temblando, y con los ojos cerrados
    D     E    F#m       C#m
El cielo esta nublado  y a lo lejos tu

   A       D        E    A
Hablando de lo que te ha pasado
  D    E
Intentando

  F#m                   C#m                   F#m
Ordenar palabras        para no hacerme        tanto daño
    D#m                  D                            E
   Tanto daño           y yo sigo                    temblando

      A                   D      E
E|-------0---0--9--7--5---------------0-----------------------------|
B|--2--------------------3-------0----------------------------------|
G|-----2-------------------2-------1--------------------------------|
D|-----------------------0-------2----------------------------------|
A|--0---------------------------------------------------------------|
E|------------------------------------------------------------------|

     A      D    E     A
De la mano y con mucho cuidado
   D    E        F#m           C#m
Os besasteis en silencio donde no había luz

           A         D     E     A
Y me hace gracia tu manera   de  contarlo
     D    E
Como el cuenta que

     F#m              C#m                  F#m
    Ha pensado    que ha decidido           que seguimos
     C#m                   D                             E
   Siendo amigos          y yo estoy                   temblando.

      A        F#m           D             E
Y llorando, había jurado que nunca iba a llorar
      A             F#m     D               E
Escuchando cada palabra que no quiero escuchar
      A            F#m          D              E
Desgarrándome, suplicándote intentando hacerte recordar

E|--2---2-----2----------------|
B|--3-----3-----3--------------|
G|--2-------2------------------|
D|--0--------------------------|
A|-----------------------------|
E|-----------------------------|
Pero tú

E|--1----1-----1---------------|
B|--3------3-----3-------------|
G|--2--------2-----------------|
D|--0--------------------------|
A|-----------------------------|
E|-----------------------------|
  Solo dices

Voy a colgar
      A                   D
E|-------0---0--9--7--5---------------0-----------------------------|
B|--2--------------------3-------0----------------------------------|
G|-----2-------------------2-------1--------------------------------|
D|-----------------------0-------2----------------------------------|
A|--0---------------------------------------------------------------|
E|------------------------------------------------------------------|

      A           D    E          F#m          D#m         
E|-------0-----------------0------------3-------------4---------/12/-|
B|--2------2-----3-----0-----0-------3----3-------5-----5------------|
G|-----2-----2-----2-----1-------------3----3-------6-----6----------|
D|---------------0-----2---------------------------------------------|
A|--0--------------------------------4------------4------------------|
E|-------------------------------------------------------------------|
      F#m          C#m           D           E    
E|-----3---------------4------------2-------------0------------------|
B|--3----3---------5-----5-------3----3--------0----0----------------|
G|----3----3---------6-----6-------2----2--------1----1--------------|
D|-------------------------------0-------------2---------------------|
A|--4--------------4-------------------------------------------------|
E|-------------------------------------------------------------------|
Composição de David Summers
Colaboração e revisão:
  • kirityarjuna
  • Cassiane Santos
5.404 exibições
    • ½ Tom
    • Am
    • Bbm
    • Bm
    • Cm
    • C#m
    • Dm
    • Ebm
    • Em
    • Fm
    • F#m
    • Gm
    • G#m
  • Adicionar à lista

    0 comentários

    Ver todos os comentários

    Conseguiu tocar?

    0 Tocaram 0 Ainda não

    Grave um vídeo tocando Temblando e nos envie!

    00:00 / 00:00
    outros vídeos desta música
    repetir qualidade Automático
    Outros vídeos desta música
    00:00 / 00:00
    Automático

    Cifra Club Pro

    Aproveite o Cifra Club com benefícios exclusivos e sem anúncios
    Cifra Club Pro
    Aproveite o Cifra Club com benefícios exclusivos e sem anúncios
    OK