Cifra Club

Só Você

Hori

Tab de baixo: Principal
exibições 1.455
(parte 1) (♫ Demorei muito pra te encontrar agora eu quero só vc... ♫)
G||-----------------|
D||-----------------|
A||-----------------|
E||---3-3-5----3-1--| (deixa soar última nota)

(parte 2) (♫ Te abraço e sinto... ♫)
G||----------------------------|
D||----------------------------|
A||----3-3-3-------------------|
E||----------3-3-3-5-5-5-1-1-1-|

(parte 3) tava cansado de me preoculpar
G|-------------------
D|-------------------
A--------------------
E|-5-3-1---3-3-5-3-1-

(até o refrão)
G|--3-3-5-3-1---
D|--------------
A|--------------
E|--------------
 no refrão volta para a parte 2

(parte| 4 só você.. eu quero só você...)
G|-----------------------
D|-----------------------
A|-3-2-------------------
E|-----1-3-5-3-1-3-------

solo| tem que ouvir bem a musica antes de fazer o solo

G|----------------
D|----------------  (4x)
A|--3-------------
E|----3-1-3-------
Composição: Vinicius CantuáriaColaboração e revisão:
  • Samuel Rocha
  • Felipe Carvalho

0 comentários

    mostrar mais comentários

    Conseguiu tocar?

    1tocaram0ainda não

    Grave um vídeo tocando Só Você e mande pra gente!

    00:00 / 00:00
    outros vídeos desta música
    repetirqualidadeautomática
    Outro vídeos desta música
      00:00 / 00:00
      automática
      OK