Cifra Club

Aprenda

Filosofia

I-Tai

Cifra: Principal (violão e guitarra)
tom: F
Solo 1 
E|-----------------------------------------------------------
B|-8/10-10-10-10-10-8----8----8h10h8------------8h10h8---8---
G|--------------------10---10--------10-7--7-10-------10-----
D|---------------------------------------10------------------
A|-----------------------------------------------------------
E|-----------------------------------------------------------

E|--------------------------8h10h8---------------------------
B|-8/10-10-10-10-10-8---8----------11-10-8h10h8---8----------
G|--------------------10--10-------------------10--10--------
D|-----------------------------------------------------------
A|-----------------------------------------------------------
E|-----------------------------------------------------------

Solo Final
E|-------------------------------13(6x)-15(5x)-22-20-18-17-13-13-
B|--------------10-----------------------------------------------
G|------10-12-12--12-10-12/\9(5x)--------------------------------
D|-10h12---------------------------------------------------------
A|---------------------------------------------------------------
E|---------------------------------------------------------------

Intro: (F, C, Bb, [A/Bb], Bb)

(F, C, Bb, [A/Bb], Bb)
Pra que mentir nada disso é preciso
Não se chega a lugar algum
Se com o olhar ou apenas um sorriso, é fatal
Sem saída para escapar

A vida é feita de momentos vitais, naturais
Isso o tempo vem ensinar
A natureza o amor tudo isso é I-Tai
Com essa onda deixe se levar

(F, C, Bb, [A/Bb], Bb) 1 Tempo

(F, C, [A])

(Gm, [A],  Bb)
Mas para alcançar o fim tem que correr atras
Deixar de lado o orgulho e saber que se é capaz

Refrão: 
(F, Gm, Bb, C)
Sempre tranqüilo busco todos os meus destinos
Sem nenhuma pressa pra chegar
A vida é bela e tem muitos caminhos
É só saber em qual se deve entrar
(F, Gm, Bb, C)
Sempre tranqüilo busco todos os meus destinos
Sem nenhuma pressa pra chegar
A vida é bela e tem muitos caminhos
É só saber em qual se deve entrar

(F, Gm, Bb, C) Solo1

(F, C, Bb, [A/Bb], Bb)
Filosofias e muitos pensamentos
Pra chegar a uma vida melhor
Soluções para problemas que surgem a todo momento
Não é fácil tem que super

São notas e mais notas sempre em harmonia
Escrevendo uma nova história
Curtindo um rock, reggae sempre com alegria
Tudo isso é I-Tai

(F, C, [A])

(Gm, [A],  Bb)
Mas para alcançar o fim tem que correr atras
Deixar de lado o orgulho e saber que se é capaz

Refrão: 
(F, Gm, Bb, C)
Sempre tranqüilo busco todos os meus destinos
Sem nenhuma pressa pra chegar
A vida é bela e tem muitos caminhos
É só saber em qual se deve entrar
(F, Gm, Bb, C)
Sempre tranqüilo busco todos os meus destinos
Sem nenhuma pressa pra chegar
A vida é bela e tem muitos caminhos
É só saber em qual se deve entrar

(F, Gm, Bb, C) 3x  Solo Final
F
Composição de Bruno Damásio
Colaboração e revisão:
  • Bruno Soares
611 exibições
    • ½ Tom
    • A
    • Bb
    • B
    • C
    • Db
    • D
    • Eb
    • E
    • F
    • F#
    • G
    • Ab
  • Adicionar à lista

    0 comentários

    Ver todos os comentários

    Conseguiu tocar?

    0 Tocaram 0 Ainda não

    Grave um vídeo tocando Filosofia e nos envie!

    00:00 / 00:00
    outros vídeos desta música
    repetir qualidade Automático
    Outros vídeos desta música
    00:00 / 00:00
    Automático

    Cifra Club Pro

    Aproveite o Cifra Club com benefícios exclusivos e sem anúncios
    Cifra Club Pro
    Aproveite o Cifra Club com benefícios exclusivos e sem anúncios
    OK