Cifra Club

Aprenda

1776

Iced Earth

Tab de baixo: Versão 3
Tune down ½ step
Something wicked comes this way

INTRO   .-sttaccato 
|-----------|
|*.|
|-7--------7|
|-0--------0|
|-----------|

Main Theme
|--------------------------------------| 
|--------------------------------------| 
|---------7----7-----------------------| 4 string plays octave down 
|-----------------------3--2-3-2-------| C#|-5---4-5-4--2--0--|
|-5---555---5----555--------------5--3-|

Break
|----------|
|----------|
|-3-2------|
|-----3-2--|
|----------|

Pre theme 2
|-----------------------|
|-----------------------|
|-----------------------|
|*|
|--5---5--5---5---5--5--|


Theme 2
|---------------------------------------|-----------------------------|
|---------------------------------------|-----------------------------|
|-----------7---------7---------7-------|-77770-5500---3---3--3--3-3-5|
|---------------------------------------|-----------------------------|
|---5--555----5---555---5---555---------|-----------------------------|


Solo Riff
|----------------------------------------------|
|----------------------------------------------|
|-7--------7-------5-----5---------3--2--------|
|-------------7------------5------------3-/7---|
|----------------------------------------------|


|---------|---|
|---------|---|
|-3-2-----|---|
|-----3-2-|-0-|End
|---------|---|
18 exibições

0 comentários

Ver todos os comentários
00:00 / 00:00
outros vídeos desta música
repetir qualidade Automático
Outros vídeos desta música
00:00 / 00:00
Automático

Cifra Club Pro

Aproveite o Cifra Club com benefícios exclusivos e sem anúncios
Cifra Club Pro
Aproveite o Cifra Club com benefícios exclusivos e sem anúncios
OK