Cifra Club

Aprenda

1776

Iced Earth

Tab de baixo: Versão 4
G||--------------------|--------------------|------------------------------|
D||--------------------|--------------------|------------------------------|
A||--------------------|--------------------|-----------6-------------6----|
E||------0--------0----|------0--------0----|--0--0-0-0------0--0-0-0------|
                                                          
--------------------------|------------------------------|
--------------------------|------------------------------|
---------------------4----|-----------6-------------6----|
--2----1--2--1--0---------|--0--0-0-0------0--0-0-0------|
                    
--------------------------|----------------------|
--------------------------|----------------------|
---------------------4----|--2----1--------------|
--2----1--2--1--0---------|------------2----1----|
                                                          
------------------------------|--------------------------|
------------------------------|--------------------------|
-----------6-------------6----|---------------------4----|
--0--0-0-0------0--0-0-0------|--2----1--2--1--0---------|
                       
------------------------------|--------------------------|
------------------------------|--------------------------|
-----------6-------------6----|---------------------4----|
--0--0-0-0------0--0-0-0------|--2----1--2--1--0---------|
                      
------------------------------|--------------------------|
------------------------------|--------------------------|
-----------6-------------6----|---------------------4----|
--0--0-0-0------0--0-0-0------|--2----1--2--1--0---------|
                             
----------------------|--------------------------------------|
----------------------|--------------------------------------|
--2----1--------------|--------------------------------------|
------------2----1----|--0--0-0-0-0--0--0--0--0-0-0-0--0--0--|
                                     
--------------------------------------|------------------------------|
--------------------------------------|------------------------------|
--------------------------------------|-----------6-------------6----|
--0--0-0-0-0--0--0--0--0-0-0-0--0--0--|--0--0-0-0------0--0-0-0------|
                                                                  
----------------------------------|------------------------------|
----------------------------------|------------------------------|
-----------6----6--6-6-0-4--4-4-0-|--2----2--2-2-2-2----2--2-2-2-|
--0--0-0-0------------------------|------------------------------|
                                                          
--------------------------|------------------------------|
--------------------------|------------------------------|
--2----2--2-2-2-2----4----|-----------6-------------6----|
--------------------------|--0--0-0-0------0--0-0-0------|
                                                                  
----------------------------------|------------------------------|
----------------------------------|------------------------------|
-----------6----6--6-6-0-4--4-4-0-|--2----2--2-2-2-2----2--2-2-2-|
--0--0-0-0------------------------|------------------------------|
                                                          
--------------------------|------------------------------|
--------------------------|------------------------------|
--2----2--2-2-2-2----4----|-----------6-------------6----|
--------------------------|--0--0-0-0------0--0-0-0------|
                                           
----------------------------------|------------------------------|
----------------------------------|------------------------------|
-----------6----6--6-6-0-4--4-4-0-|--2----2--2-2-2-2----2--2-2-2-|
--0--0-0-0------------------------|------------------------------|
                                                          
--------------------------|------------------------------|
--------------------------|------------------------------|
--2----2--2-2-2-2----4----|-----------6-------------6----|
--------------------------|--0--0-0-0------0--0-0-0------|
                                                
----------------------------------|------------------------------|
----------------------------------|------------------------------|
-----------6----6--6-6-0-4--4-4-0-|--2----2--2-2-2-2----2--2-2-2-|
--0--0-0-0------------------------|------------------------------|     
                             
--------------------------|--------------------------|
--------------------------|--------------------------|
--2----2--2-2-2-2----4----|--6--6--6--6--6--6--6--6--|
--------------------------|--------------------------|
                                                      
--------------------------|--------------------------|
--------------------------|--------------------------|
--------------------------|--4--4--4--4--4--4--4--4--|
--6--6--6--6--6--6--6--6--|--------------------------|
                                                      
--------------------------|--------------------------|
--------------------------|--------------------------|
--------------------------|--2--2--2--2--2--2--2--2--|
--4--4--4--4--4--4--4--4--|--------------------------|
                                    
--------------------------|--------------------------|
--------------------------|--------------------------|
--------------------------|--------------------------|
--2--2--2--2--2--2--2--2--|--4--4--4--4--4--4--4--4--|
                                 
--------------------------|--------------------------|
--------------------------|--------------------------|
--1--1--1--1--1--1--1--1--|--6--6--6--6--6--6--6--6--|
--------------------------|--------------------------|
                                                      
--------------------------|--------------------------|
--------------------------|--------------------------|
--------------------------|--4--4--4--4--4--4--4--4--|
--6--6--6--6--6--6--6--6--|--------------------------|
                                                      
--------------------------|--------------------------|
--------------------------|--------------------------|
--------------------------|--2--2--2--2--2--2--2--2--|
--4--4--4--4--4--4--4--4--|--------------------------|
                                                      
--------------------------|--------------------------|
--------------------------|--------------------------|
--------------------------|--------------------------|
--2--2--2--2--2--2--2--2--|--4--4--4--4--4--4--4--4--
                                              
--------------------------|------------------------------|
--------------------------|------------------------------|
--1--1--1--1--1--1--1--1--|-----------6-------------6----|
--------------------------|--0--0-0-0------0--0-0-0------|
                                                          
--------------------------|------------------------------|
--------------------------|------------------------------|
---------------------4----|-----------6-------------6----|
--2----1--2--1--0---------|--0--0-0-0------0--0-0-0------|
                                          
--------------------------|------------------------------|
--------------------------|------------------------------|
---------------------4----|-----------6-------------6----|
--2----1--2--1--0---------|--0--0-0-0------0--0-0-0------|
                               
--------------------------|----------------------|
--------------------------|----------------------|
---------------------4----|--2----1--------------|
--2----1--2--1--0---------|------------2----1----|
                                                          
------------------------------|--------------------------|
------------------------------|--------------------------|
-----------6-------------6----|---------------------4----|
--0--0-0-0------0--0-0-0------|--2----1--2--1--0---------|
                                  
------------------------------|--------------------------|
------------------------------|--------------------------|
-----------6-------------6----|---------------------4----|
--0--0-0-0------0--0-0-0------|--2----1--2--1--0---------|
                                         
------------------------------|--------------------------|
------------------------------|--------------------------|
-----------6-------------6----|---------------------4----|
--0--0-0-0------0--0-0-0------|--2----1--2--1--0---------|
                                                              
----------------------|--------------------------------------|
----------------------|--------------------------------------|
--2----1--------------|--------------------------------------|
------------2----1----|--0--0-0-0-0--0--0--0--0-0-0-0--0--0--|
                                                                      
--------------------------------------|------------------------------|
--------------------------------------|------------------------------|
--------------------------------------|-----------6-------------6----|
--0--0-0-0-0--0--0--0--0-0-0-0--0--0--|--0--0-0-0------0--0-0-0------|
                                                                  
----------------------------------|------------------------------|
----------------------------------|------------------------------|
-----------6----6--6-6---4--4-4---|--2----2--2-2-2-2----2--2-2-2-|
--0--0-0-0-------------4--------4-|------------------------------|
                                                          
--------------------------|------------------------------|
--------------------------|------------------------------|
--2----2--2-2-2-2----4----|-----------6-------------6----|
--------------------------|--0--0-0-0------0--0-0-0------|
                                                    
----------------------------------|------------------------------|
----------------------------------|------------------------------|
-----------6----6--6-6---4--4-4---|--2----2--2-2-2-2----2--2-2-2-|
--0--0-0-0-------------4--------4-|------------------------------|
                                           
--------------------------|------------------------------|
--------------------------|------------------------------|
--2----2--2-2-2-2----4----|-----------6-------------6----|
--------------------------|--0--0-0-0------0--0-0-0------|
                                                                  
----------------------------------|------------------------------|
----------------------------------|------------------------------|
-----------6----6--6-6---4--4-4---|--2----2--2-2-2-2----2--2-2-2-|
--0--0-0-0-------------4--------4-|------------------------------|
                                                          
--------------------------|------------------------------|
--------------------------|------------------------------|
--2----2--2-2-2-2----4----|-----------6-------------6----|
--------------------------|--0--0-0-0------0--0-0-0------|
                                                                  
----------------------------------|------------------------------|
----------------------------------|------------------------------|
-----------6----6--6-6---4--4-4---|--2----2--2-2-2-2----2--2-2-2-|
--0--0-0-0-------------4--------4-|------------------------------|
                                                                  
--------------------------|-------------------|------------------|
--------------------------|-------------------|------------------|
--2----2--2-2-2-2----4----|--6----------------|------------------|
--------------------------|-------------------|------------------|
                                                                              
-------------------|------------------|-------------------|------------------|
-------------------|------------------|-------------------|------------------|
-------------------|------------------|--4----------------|------------------|
--6----------------|------------------|-------------------|------------------|
                                                                              
-------------------|------------------|-------------------|------------------|
-------------------|------------------|-------------------|------------------|
-------------------|------------------|--4----------------|------------------|
--6----------------|------------------|-------------------|------------------|
                                                                              
-------------------|------------------|-------------------|------------------|
-------------------|------------------|-------------------|------------------|
-------------------|------------------|-------------------|------------------|
--2----------------|------------------|--4----------------|------------------|
                                                                      
-------------------|------------------|------------------------------|
-------------------|------------------|------------------------------|
--1----------------|------------------|-----------6-------------6----|
-------------------|------------------|--0--0-0-0------0--0-0-0------|
                                            
--------------------------|------------------------------|
--------------------------|------------------------------|
---------------------4----|-----------6-------------6----|
--2----1--2--1--0---------|--0--0-0-0------0--0-0-0------|
                                                          
--------------------------|------------------------------|
--------------------------|------------------------------|
---------------------4----|-----------6-------------6----|
--2----1--2--1--0---------|--0--0-0-0------0--0-0-0------|
                                     
--------------------------|----------------------|
--------------------------|----------------------|
---------------------4----|--2----1--------------|
--2----1--2--1--0---------|------------2----1----|
                                              
------------------------------|--------------------------|
------------------------------|--------------------------|
-----------6-------------6----|---------------------4----|
--0--0-0-0------0--0-0-0------|--2----1--2--1--0---------|
                                                
------------------------------|--------------------------|
------------------------------|--------------------------|
-----------6-------------6----|---------------------4----|
--0--0-0-0------0--0-0-0------|--2----1--2--1--0---------|
                                            
------------------------------|--------------------------|
------------------------------|--------------------------|
-----------6-------------6----|---------------------4----|
--0--0-0-0------0--0-0-0------|--2----1--2--1--0---------|
                                            
----------------------|-------------------||
----------------------|-------------------||
--2----1--------------|-------------------||
------------2----1----|--0----------------||
Colaboração e revisão:
  • Taino Vieira
2 exibições

0 comentários

Ver todos os comentários
00:00 / 00:00
outros vídeos desta música
repetir qualidade Automático
Outros vídeos desta música
00:00 / 00:00
Automático

Cifra Club Pro

Aproveite o Cifra Club com benefícios exclusivos e sem anúncios
Cifra Club Pro
Aproveite o Cifra Club com benefícios exclusivos e sem anúncios
OK