Cifra Club

Aprenda

Blessed Are You

Iced Earth

Tab de baixo: Versão 2
|----------------------------------------|
|----------------------------------------|
|-5--5--5-5--5-3--5-3--3--3-3---1-0--3-3-|
|-.-----.-.---------------.-.-----.----.-|
|----------------------------------------|Main Riff

|-7-|
|-7-|
|-5-|
|---|
|---|

|-------------------|
|-------------------|
|-5(when drum hits)-|
|-------------------|
|-------------------|

|------------------------|---------------|
|----7---7-5-------------|---------------|
|5-5---5------5-8-5-8-5-7|--1--1-111-0-3-|
|------------------------|---------------|Bridge
|------------------------|---------------|

Solo riff

|------------------------|------------------------|-------------------|
|-----7-------8-------5--|-9-------10---------7---|---5-------6------3|
|---5---55555---55555----|7-777777----7777777-----|--3--55555---55555-|
|------------------------|------------------------|-------------------|
|------------------------|------------------------|-------------------|

|-------------<-|
|----7---7-5--.-|
|5-5---5------5-|Live ending
|---------------|
|---------------|
Composição de Jon Schaffer
Colaboração e revisão:
  • Taino Vieira
5 exibições

0 comentários

Ver todos os comentários

Conseguiu tocar?

0 Tocaram 0 Ainda não

Grave um vídeo tocando Blessed Are You e nos envie!

00:00 / 00:00
outros vídeos desta música
repetir qualidade Automático
Outros vídeos desta música
00:00 / 00:00
Automático

Cifra Club Pro

Aproveite o Cifra Club com benefícios exclusivos e sem anúncios
Cifra Club Pro
Aproveite o Cifra Club com benefícios exclusivos e sem anúncios
OK