Cifra Club

Aprenda

Desert Rain

Iced Earth

Tab de baixo: Principal
Tune Down

F#||-----------------------|-------------------------|-------------------|
C#||-----2---2---2---2--2--|--2---2---2---2---2------|-------------------|
G#||-----------------------|-------------------------|-------------------|
D#||-----------------------|---------------------0-0-|--0----------------|
                                                             
------------------|--------------------|--------------------|
------------------|--------------------|--------------------|
------------------|--------------------|--------------------|
------------------|----------------0-0-|----------------0-0-|
                                                            
-------------------|------------------|--------------------|
-------------------|------------------|--------------------|
-------------------|------------------|--------------------|
--0----------------|------------------|----------------0-0-|
                                                                               
--------------------|-------------------|------------------|------------------|
--------------------|-------------------|------------------|------------------|
--------------------|-------------------|------------------|------------------|
----------------0-0-|--0----------------|------------------|------------------|
                                                                             
------------------|-------------------|------------------|------------------|
------------------|-------------------|------------------|------------------|
------------------|-------------------|------------------|------------------|
------------------|--0----------------|------------------|------------------|
                                                                           
---------------------|--------------------------|-------------------------|
---------------------|--------------------------|-------------------------|
---------------------|--7-----10-----8----------|--7-----8-----7----------|
--0--------------0-0-|----0-0----0-0------------|----0-0---0-0------------|
                                                                      
-------------------------|-------------------------|--------------------------|
-------------------------|-------------------------|--------------------------|
--5-----7----------------|--5-----7----------------|--7-----10-----8----------|
----0-0---0-0-0----------|----0-0---0-0-0----------|----0-0----0-0------------|
                                                                         
-------------------------|-------------------------|---------------------------|
-------------------------|-------------------------|---------------------------|
--7-----8-----7----------|--5-----7----------------|--5-----7------------------|
----0-0---0-0------------|----0-0---0-0-0----------|----0-0---0-0-0--------0-0-|
                                                               
-----------------------------------|----------------------------------|
-----------------------------------|----------------------------------|
--7-----10-----8-----8-----8-8-8-8-|--7-----8-----7-----7-----7-7-7-7-|
----0-0----0-0---0-0---0-0---------|----0-0---0-0---0-0---0-0---------|
                                         
----------------------------------------|
----------------------------------------|
--5-----7-------------------------------|
----0-0---0-0-0-0-0-0-0-0-0-0-0-0-0-0-0-|
                                                                             
----------------------------------------|-----------------------------------|
----------------------------------------|-----------------------------------|
--5-----7-------------------------------|--7-----10-----8-----8-----8-8-8-8-|
----0-0---0-0-0-0-0-0-0-0-0-0-0-0-0-0-0-|----0-0----0-0---0-0---0-0---------|
                                                                            
----------------------------------|----------------------------------------|
----------------------------------|----------------------------------------|
--7-----8-----7-----7-----7-7-7-7-|--5-----7-------------------------------|
----0-0---0-0---0-0---0-0---------|----0-0---0-0-0-0-0-0-0-0-0-0-0-0-0-0-0-|
                                                                            
----------------------------------------|----------------------------------|
----------------------------------------|----------------------------------|
--5-----7-------------------------------|--2-----3-----5-----3-----2---3---|
----0-0---0-0-0-0-0-0-0-0-0-0-0-0-0-0-0-|----0-0---0-0---0-0---0-0---0---0-|
                                                                      
----------------------------------|----------------------------------|
----------------------------------|----------------------------------|
--2-------------------------------|--2-----3-----5-----3-----2---3---|
----0-0-0-0-0-0-0-0-0-0-0-0-0-0-0-|----0-0---0-0---0-0---0-0---0---0-|
                                                                       
----------------------------------|-----------------------------------|
----------------------------------|-----------------------------------|
--2-------------------------------|--7-8-7--7-7-7-7-10--10-10--8-8-8--|
----0-0-0-0-0-0-0-0-0-0-0-0-0-0-0-|-----------------------------------|
                                           
----------------------------------------------|
-------------------9-9-9-7-7-7-10-10-10-------|
--7-8-7--7-7-7-7-7----------------------8-8-8-|
----------------------------------------------|
                           
-----------------------------------|
-----------------------------------|
--7-8-7--7-7-7-7-10--10-10--8-8-8--|
-----------------------------------|
                                               
----------------------------------------------|
-------------------9-9-9-7-7-7----------------|
--7-8-7--7-7-7-7-7-------------10-10-10-8-8-8-|
----------------------------------------------|
                                    
-----------------------------------|
-----------------------------------|
--7-8-7--7-7-7-7-10--10-10--8-8-8--|
-----------------------------------|
                                               
----------------------------------------------|
-------------------9-9-9-7-7-7-10-10-10-------|
--7-8-7--7-7-7-7-7----------------------8-8-8-|
----------------------------------------------|
                                    
-----------------------------------|
-----------------------------------|
--7-8-7--7-7-7-7-10--10-10--8-8-8--|
-----------------------------------|
                                                              
----------------------------------------------|--------------------|
-------------------9-9-9-7-7-7----------------|--------------------|
--7-8-7--7-7-7-7-7-------------10-10-10-8-8-8-|--------------------|
----------------------------------------------|--0-0---------------|

--------------------|-----------------------------------|
--------------------|-----------------------------------|
--------------------|--7-8-7--7-7-7-7-10--10-10--8-8-8--|
--0-0---------------|-----------------------------------|
                                               
----------------------------------------------|
-------------------9-9-9-7-7-7-10-10-10-------|
--7-8-7--7-7-7-7-7----------------------8-8-8-|
----------------------------------------------|
                                    
-----------------------------------|
-----------------------------------|
--7-8-7--7-7-7-7-10--10-10--8-8-8--|
-----------------------------------|
                                               
----------------------------------------------|
-------------------9-9-9-7-7-7----------------|
--7-8-7--7-7-7-7-7-------------10-10-10-8-8-8-|
----------------------------------------------|
                                    
-----------------------------------|
-----------------------------------|
--7-8-7--7-7-7-7-10--10-10--8-8-8--|
-----------------------------------|
                                         
----------------------------------------------|
-------------------9-9-9-7-7-7-10-10-10-------|
--7-8-7--7-7-7-7-7----------------------8-8-8-|
----------------------------------------------|

-----------------------------------|
-----------------------------------|
--7-8-7--7-7-7-7-10--10-10--8-8-8--|
-----------------------------------|
                                                                    
----------------------------------------------|--------------------|
-------------------9-9-9-7-7-7----------------|--------------------|
--7-8-7--7-7-7-7-7-------------10-10-10-8-8-8-|--------------------|
----------------------------------------------|--0-0---------------|

--------------------|--------------------|--------------------|
--------------------|--------------------|--------------------|
--------------------|--------------------|--------------------|
--0-0---------------|--0-0---------------|--0-0---------------|
                                                               
----------------------------------|----------------------------------|
----------------------------------|----------------------------------|
--7-7-7-7-7-7-7-7-7-7-7-7-7-7-7-7-|--7-7-7-7-7-7-7-7-7-7-7-7-7-7-7-7-|
----------------------------------|----------------------------------|
                                                               
----------------------------------|----------------------------------|
----------------------------------|----------------------------------|
--7-7-7-7-7-7-7-7-7-7-7-7-7-7-7-7-|--7-7-7-7-7-7-7-7-7-7-7-7-7-7-7-7-|
----------------------------------|----------------------------------|
                                                                              
----------------------------------|------------------------------------------|
----------------------------------|------------------------------------------|
--5-5-5-5-5-5-5-5-5-5-5-5-8-8-8-8-|--10-10-10-10-10-10-10-10-8-8-8-8-8-8-8-8-|
----------------------------------|------------------------------------------|
                                                                      
----------------------------------|----------------------------------|
----------------------------------|----------------------------------|
--7-7-7-7-7-7-7-7-7-7-7-7-7-7-7-7-|--7-7-7-7-7-7-7-7-7-7-7-7-7-7-7-7-|
----------------------------------|----------------------------------|
                                                                      
----------------------------------|----------------------------------|
----------------------------------|----------------------------------|
--7-7-7-7-7-7-7-7-7-7-7-7-7-7-7-7-|--7-7-7-7-7-7-7-7-7-7-7-7-7-7-7-7-|
----------------------------------|----------------------------------|

----------------------------------|----------------------------------|
----------------------------------|----------------------------------|
--7-7-7-7-7-7-7-7-7-7-7-7-7-7-7-7-|--7-7-7-7-7-7-7-7-7-7-7-7-7-7-7-7-|
----------------------------------|----------------------------------|
                                                             
----------------------------------|------------------------------------------|
----------------------------------|------------------------------------------|
--5-5-5-5-5-5-5-5-5-5-5-5-8-8-8-8-|--10-10-10-10-10-10-10-10-8-8-8-8-8-8-8-8-|
----------------------------------|------------------------------------------|
                                                                      
----------------------------------|----------------------------------|
----------------------------------|----------------------------------|
--7-7-7-7-7-7-7-7-7-7-7-7-7-7-7-7-|--7-7-7-7-7-7-7-7-7-7-7-7-7-7-7-7-|
----------------------------------|----------------------------------|

----------------------------------|----------------------------------|
----------------------------------|----------------------------------|
--7-7-7-7-7-7-7-7-7-7-7-7-7-7-7-7-|--7-7-7-7-7-7-7-7-7-7-7-7-7-7-7-7-|
----------------------------------|----------------------------------|
                                                            
----------------------------------|----------------------------------|
----------------------------------|----------------------------------|
--7-7-7-7-7-7-7-7-7-7-7-7-7-7-7-7-|--7-7-7-7-7-7-7-7-7-7-7-7-7-7-7-7-|
----------------------------------|----------------------------------|
                                                                              
----------------------------------|------------------------------------------|
----------------------------------|------------------------------------------|
--5-5-5-5-5-5-5-5-5-5-5-5-8-8-8-8-|--10-10-10-10-10-10-10-10-8-8-8-8-8-8-8-8-|
----------------------------------|------------------------------------------|
                                                                      
----------------------------------|----------------------------------|
----------------------------------|----------------------------------|
--7-7-7-7-7-7-7-7-7-7-7-7-7-7-7-7-|--7-7-7-7-7-7-7-7-7-7-7-7-7-7-7-7-|
----------------------------------|----------------------------------|
                                                                              
----------------------------------|------------------------------------------|
----------------------------------|------------------------------------------|
--5-5-5-5-5-5-5-5-5-5-5-5-8-8-8-8-|--10-10-10-10-10-10-10-10-8-8-8-8-8-8-8-8-|
----------------------------------|------------------------------------------|
                                                       
----------------------------------|-------------------------------|
----------------------------------|-------------------------------|
--7-7-7-7-7-7-7-7-7-7-7-7-7-7-7-7-|--7-7-7-7-7-7-7-7-7-7-7-7-7/---|
----------------------------------|-------------------------------|
                                                         
----------------------------|---------------------------|
----------------------------|---------------------------|
----------------------------|---------------------0-----|
--0--0-0-0-0-0-0--0-0-0-0-0-|--0--0-0-0-0-0-0-1-3---3-1-|
                                                         
----------------------------|---------------------------|
----------------------------|---------------------------|
----------------------------|---------------------0-----|
--0--0-0-0-0-0-0--0-0-0-0-0-|--0--0-0-0-0-0-0-1-3---3-1-|
                                                   
----------------------------|---------------------------|
----------------------------|---------------5-8-7-5-----|
--5--5-5-5-5-5-5--5-5-5-5-5-|--5--5-5-5-5-5---------8-5-|
----------------------------|---------------------------|
                                                     
----------------------------|-----------------------|
----------------------------|-----------------------|
----------------------------|---------------3---5---|
--0--0-0-0-0-0-0--0-0-0-0-0-|--0--0-0-0-0-0---------|
                                                         
----------------------------|---------------------------|
----------------------------|---------------------------|
----------------------------|---------------------0-----|
--0--0-0-0-0-0-0--0-0-0-0-0-|--0--0-0-0-0-0-0-1-3---3-1-|
                                                 
----------------------------|---------------------------|
----------------------------|---------------------------|
----------------------------|---------------------0-----|
--0--0-0-0-0-0-0--0-0-0-0-0-|--0--0-0-0-0-0-0-1-3---3-1-|
                                                         
----------------------------|---------------------------|
----------------------------|---------------5-8-7-5-----|
--5--5-5-5-5-5-5--5-5-5-5-5-|--5--5-5-5-5-5---------8-5-|
----------------------------|---------------------------|
                                                                     
----------------------------|-----------------------|--------------------|
----------------------------|-----------------------|--------------------|
----------------------------|---------------3---5---|--------------------|
--0--0-0-0-0-0-0--0-0-0-0-0-|--0--0-0-0-0-0---------|--0-0---------------|
                                                
--------------------|--------------------|--------------------|
--------------------|--------------------|--------------------|
--------------------|--------------------|--------------------|
--0-0---------------|--0-0---------------|--0-0---------------|
                                           
------------------------------------------|
------------------------------------------|
--5-5-5-5-5-5-5-5-5-5-5-5-5-5-5-5-5-0-6-5-|
------------------------------------------|
                                         
----------------------------------------|
----------------------------------------|
--5-5-5-5-5-5-5-5-5-5-5-5-5-5-5-5-6--6--|
----------------------------------------|
                                          
------------------------------------------|
------------------------------------------|
--5-5-5-5-5-5-5-5-5-5-5-5-5-5-5-5-5-0-6-5-|
------------------------------------------|
                                 
----------------------------------------|
----------------------------------------|
--5-5-5-5-5-5-5-5-5-5-5-5-5-5-5-5-6--6--|
----------------------------------------|
                                           
------------------------------------------|
------------------------------------------|
--7-7-7-7-7-7-7-7-7-7-7-7-7-7-7-7-7-0-8-7-|
------------------------------------------|
                                         
----------------------------------------|
----------------------------------------|
--7-7-7-7-7-7-7-7-7-7-7-7-7-7-7-7-8--8--|
----------------------------------------|
                                         
------------------------------------------|
------------------------------------------|
--7-7-7-7-7-7-7-7-7-7-7-7-7-7-7-7-7-0-8-7-|
------------------------------------------|
                                         
----------------------------------------|
----------------------------------------|
--7-7-7-7-7-7-7-7-7-7-7-7-7-7-7-7-8--8--|
----------------------------------------|
                                    
------------------------------------------|
------------------------------------------|
--5-5-5-5-5-5-5-5-5-5-5-5-5-5-5-5-5-0-6-5-|
------------------------------------------|
                                    
----------------------------------------|
----------------------------------------|
--5-5-5-5-5-5-5-5-5-5-5-5-5-5-5-5-6--6--|
----------------------------------------|
                                           
------------------------------------------|
------------------------------------------|
--5-5-5-5-5-5-5-5-5-5-5-5-5-5-5-5-5-0-6-5-|
------------------------------------------|
                                                                              
----------------------------------------|------------------------------------|
----------------------------------------|-------------7----------------------|
--5-5-5-5-5-5-5-5-5-5-5-5-5-5-5-5-6--6--|--7-9-9-10-9---10-9-7-10-9-7-6-7----|
----------------------------------------|------------------------------------|
                                                                           
-------------------------------------|------------------------------------|
-------------7--------10-9-7---------|-------------7----------------------|
--7-9-9-10-9---10-9-7--------10-9----|--7-9-9-10-9---10-9-7-10-9-7-6-7----|
-------------------------------------|------------------------------------|
                                                                           
-------------------------------------|-------------------|---------------------|
-------------7--------10-9-7---------|-------------------|---------------------|
--7-9-9-10-9---10-9-7--------10-9----|-------------------|---------------------|
-------------------------------------|--0----------------|---------------0-3-3-|
                                                             
-------------------|--------------------|-------------------|
-------------------|--------------------|-------------------|
-------------------|--------------------|-------------------|
--0----------------|---------------0-3--|--0----------------|
                                                                
---------------------|-------------------|---------------------|
---------------------|-------------------|---------------------|
---------------------|-------------------|---------------------|
---------------0-3-3-|--0----------------|---------------0-3-2-|
                                                                       
-------------------|-------------------|------------------------------|
-------------------|-------------------|-----------5-4--------4-5-4---|
-------------------|-------------------|---------------5----5-------5-|
--0----------------|--0----------------|--0--0-0-0--------------------|
                                                             
-----------------------------|------------------------------|
--------5-4------5-7-9-7-5---|-----------5-4--------4-5-4---|
------------5--5-----------5-|---------------5----5-------5-|
--0--------------------------|--0--0-0-0--------------------|
                                                     
----------------------------|------------------------------|
--------5-4------5-7-9-4----|-----------5-4--------4-5-4---|
------------5--5---------5--|---------------5----5-------5-|
--0-------------------------|--0--0-0-0--------------------|
                                                        
---------------------------|--------------------------------|
--------5-4--------5-4-----|--------------------------------|
------------5----5-----5-0-|--------------7---5-----5---5---|
--0------------------------|--0-0-0-0-0-0---0---------0---0-|
                                                             
-------------------------------|--------------------------------|
------------------------4-5-4--|--------------------------------|
--------------7---5------------|--------------7---5-----5---5---|
--0-0-0-0-0-0---0--------------|--0-0-0-0-0-0---0---------0---0-|
                                                         
--------------------------------|--------------------------------|
-----------------------9-7-4----|--------------------------------|
--------------7---5----------5--|--------------7---5-----5---5---|
--0-0-0-0-0-0---0---------------|--0-0-0-0-0-0---0---------0---0-|
                                                       
-------------------------------|--------------------------------|
------------------------4-5-4--|--------------------------------|
--------------7---5------------|--------------7---5-----5---5---|
--0-0-0-0-0-0---0--------------|--0-0-0-0-0-0---0---------0---0-|
                                                            
--------------------------------|--------------------------|
--------------------------------|--------------------------|
--------------7---5----5--------|--------------------0-----|
--0-0-0-0-0-0---0--------2-3-5--|------------0-1-1-3---3-1-|
                                                         
----------------------------|---------------------------|
----------------------------|---------------------------|
----------------------------|---------------------0-----|
--0--0-0-0-0-0-0--0-0-0-0-0-|--0--0-0-0-0-0-0-1-3---3-1-|
                                                   
----------------------------|---------------------------|
----------------------------|---------------------------|
----------------------------|---------------------0-----|
--0--0-0-0-0-0-0--0-0-0-0-0-|--0--0-0-0-0-0-0-1-3---3-1-|
                                                   
----------------------------|---------------------------|
----------------------------|---------------5-8-7-5-----|
--5--5-5-5-5-5-5--5-5-5-5-5-|--5--5-5-5-5-5---------8-5-|
----------------------------|---------------------------|
                                                   
----------------------------|-----------------------|
----------------------------|-----------------------|
----------------------------|---------------3---5---|
--0--0-0-0-0-0-0--0-0-0-0-0-|--0--0-0-0-0-0---------|
                                                   
----------------------------|---------------------------|
----------------------------|---------------------------|
----------------------------|---------------------0-----|
--0--0-0-0-0-0-0--0-0-0-0-0-|--0--0-0-0-0-0-0-1-3---3-1-|
                                                   
----------------------------|---------------------------|
----------------------------|---------------------------|
----------------------------|---------------------0-----|
--0--0-0-0-0-0-0--0-0-0-0-0-|--0--0-0-0-0-0-0-1-3---3-1-|
                                                  
----------------------------|---------------------------|
----------------------------|---------------5-8-7-5-----|
--5--5-5-5-5-5-5--5-5-5-5-5-|--5--5-5-5-5-5---------8-5-|
----------------------------|---------------------------|
                                                
----------------------------|-----------------------|
----------------------------|-----------------------|
----------------------------|---------------3---5---|
--0--0-0-0-0-0-0--0-0-0-0-0-|--0--0-0-0-0-0---------|
                                                   
----------------------------|---------------------------|
----------------------------|---------------------------|
----------------------------|---------------------0-----|
--0--0-0-0-0-0-0--0-0-0-0-0-|--0--0-0-0-0-0-0-1-3---3-1-|
                                                         
----------------------------|---------------------------|
----------------------------|---------------------------|
----------------------------|---------------------0-----|
--0--0-0-0-0-0-0--0-0-0-0-0-|--0--0-0-0-0-0-0-1-3---3-1-|
                                                         
----------------------------|---------------------------|
----------------------------|---------------5-8-7-5-----|
--5--5-5-5-5-5-5--5-5-5-5-5-|--5--5-5-5-5-5---------8-5-|
----------------------------|---------------------------|
                                                     
----------------------------|-----------------------|
----------------------------|-----------------------|
----------------------------|---------------3---5---|
--0--0-0-0-0-0-0--0-0-0-0-0-|--0--0-0-0-0-0---------|

----------------------------|---------------------------|
----------------------------|---------------------------|
----------------------------|---------------------0-----|
--0--0-0-0-0-0-0--0-0-0-0-0-|--0--0-0-0-0-0-0-1-3---3-1-|
                                                      
----------------------------|---------------------------|
----------------------------|---------------------------|
----------------------------|---------------------0-----|
--0--0-0-0-0-0-0--0-0-0-0-0-|--0--0-0-0-0-0-0-1-3---3-1-|
                                                      
----------------------------|---------------------------|
----------------------------|---------------5-8-7-5-----|
--5--5-5-5-5-5-5--5-5-5-5-5-|--5--5-5-5-5-5---------8-5-|
----------------------------|---------------------------|
                                                                             
----------------------------|-----------------------|---------------|------||
----------------------------|-----------------------|---------------|------||
----------------------------|---------------3---5---|---------------|------||
--0--0-0-0-0-0-0--0-0-0-0-0-|--0--0-0-0-0-0---------|--0------------|------||
Composição de Dave Abell / Jon Schaffer
Colaboração e revisão:
  • Taino Vieira
32 exibições

0 comentários

Ver todos os comentários

Conseguiu tocar?

0 Tocaram 0 Ainda não

Grave um vídeo tocando Desert Rain e nos envie!

00:00 / 00:00
outros vídeos desta música
repetir qualidade Automático
Outros vídeos desta música
00:00 / 00:00
Automático

Cifra Club Pro

Aproveite o Cifra Club com benefícios exclusivos e sem anúncios
Cifra Club Pro
Aproveite o Cifra Club com benefícios exclusivos e sem anúncios
OK