Cifra Club

Aprenda

My own Savior

Iced Earth

Cifra: Principal (violão e guitarra)
tom: G
Tuning: Eb 

Intro 
                    x3 
e|------------------|------------| 
B|------------------|------------| 
G|------------------|------------| 
D|------------------|----------5-| 
A|------------------|----------5-| 
E|-0h2-2-2-2-2-2-2--|-0h2-2-2--3-| 
       * * * * * *        * * 

                    x2 
e|------------------|----------------| 
B|------------------|----------------| 
G|------------------|----------------| 
D|------------------|----------------| 
A|------------------|-----3---5-3----| 
E|-0h2-2-2-2-2-2-2--|-2-2---2-----3~-| 
       * * * * * *    * *ah *ahahah 

Verse 
e|-----------------------------------------------------| 
B|-----------------------------------------------------| 
G|-----------------------------------------------------| 
D|-----------------------------------------------------| 
A|-2-----------5-----5/7\5-4---------------------------| 
E|-0-0-0-0-0-0-3-3-3-3/5\3-2-2-2-2-2-2-2-2-2-2-2-2-2-2-| 
     * * * * *   * *         * * * * * * * * * * * * * 

e|-----------------------------------------------------| 
B|-----------------------------------------------------| 
G|-----------------------------------------------------| 
D|-----------------------------------------------------| 
A|-2-----------5-----5/7\5-4---------------------------| 
E|-0-0-0-0-0-0-3-3-3-3/5\3-2-2-2-2-2-222-2-2-222-2-2-2-| 
     * * * * *   * *         * * * * *** * * *** * * * 

Pre-chorus (clean)       
                          x2 
e|------------------------|---------------------------------------------| 
B|------------------------|---------------------------------------------| 
G|--------12--------11----|--------12------11----------11---------11----| 
D|-----12--------11----11-|-----12------11------9---11----11---11----11-| 
A|--10-------9------------|--10-------9-------7---9----------9----------| 
E|------------------------|---------------------------------------------| 

Chorus 
e|---------------------------------------------------| 
B|---------------------------------------------------| 
G|---------------------------------------------------| 
D|---------------------------------------------------| 
A|-5--4----------5--4----------5--4--2--4--4---------| 
E|-3--2--2-2222--3--2--2-2222--3--2--0--2--2--2-2222-| 
         * ****        * ****                 * **** 

Solo Rhythm 
e|---------------------------------------------------| 
B|---------------------------------------------------| 
G|---------------------------------------------------| 
D|-7--6----------7--6----------7--6--4--6--6---------| 
A|-5--4--4-4444--5--4--4-4444--5--4--2--4--4--4-4444-| 
E|---------------------------------------------------| 
         * ****        * ****                 * **** 

e|---------------------------------------------------| 
B|---------------------------------------------------| 
G|---------------------------------------------------| 
D|---------------------------------------------------| 
A|-5--4----------5--4----------5--4--2--4--4---------| 
E|-3--2--2-2222--3--2--2-2222--3--2--0--2--2--2-2222-| 
         * ****        * ****                 * **** 

Repeat intro and verse and chorus, then : 
       
                     x2 
e|-------------------|----------------------------------------| 
B|-------------------|----------------------------------------| 
G|-------------------|----------------------------------------| 
D|-------------------|----------------------------------------| 
A|-------------------|----------------------------------------| 
E|-333333-2222222222-|--333333-222222-0000-222222-22222222222-| 
   ****** **********    ****** ****** **** ****** *********** 

e|------------------------------------------------------------------| 
B|------------------------------------------------------------------| 
G|------------------------------------------------------------------| 
D|------------------------------------------------------------------| 
A|---5-4---5-4-2-4---5-4---5-4-2-4---5-4---5-4-2-4----2-------------| 
E|-2-----2---------2-----2---------2-----2----------5---5-3-5-3-2-3-| 
   * * * * * * * * * * * * * * * * * * * * * * * *  * * * * * * * *  

e|------------------------------------------------------------------| 
B|------------------------------------------------------------------| 
G|---7-6---7-6-4-6---7-6---7-6-4-6---7-6---7-6-4-6----4-------------| 
D|-4-----4---------4-----4---------4-----4----------7---7-5-7-5-4-5-| 
A|------------------------------------------------------------------| 
E|------------------------------------------------------------------| 
   * * * * * * * * * * * * * * * * * * * * * * * *  * * * * * * * *  

Ending 
e|---------------------------------------------------| 
B|---------------------------------------------------| 
G|---------------------------------------------------| 
D|-12-11---------12-11---------12-11--9-11-11--------| 
A|-10--9-9-9999--10--9-9-9999--10--9--7--9--9-9-9999-| 
E|---------------------------------------------------| 
         * ****        * ****                 * **** 

e|------------------------------------------------| 
B|------------------------------------------------| 
G|------------------------------------------------| 
D|-12-11---------12-11---------12-11--9-11--9-11\-| 
A|-10--9-9-9999--10--9-9-9999--10--9--7--9--7--9\-| 
E|------------------------------------------------| 
         * ****        * ****                  

notation: 
^   =  bend [ ^ = half, ^^ = whole, etc. ] 
^r  =  bend and release 
x   =  mute with fret-hand 
*   =  mute with palm-hand 
X\\ =  pick slide 
h   =  hammer-on 
p   =  pull-off 
~   =  vibrato 
t   =  tap-on 
/   =  slide up 
\   =  slide down 
h.  =  harmonics 
ah  =  artificial harmonic 
(9) =  ghost note 
tm  =  trem picking 
tr  =  trill 
Composição de Jon Schaffer
2.558 exibições
    • ½ Tom
    • A
    • Bb
    • B
    • C
    • Db
    • D
    • Eb
    • E
    • F
    • F#
    • G
    • Ab
  • Adicionar à lista

    0 comentários

    Ver todos os comentários

    Conseguiu tocar?

    0 Tocaram 0 Ainda não

    Grave um vídeo tocando My own Savior e nos envie!

    00:00 / 00:00
    outros vídeos desta música
    repetir qualidade Automático
    Outros vídeos desta música
    00:00 / 00:00
    Automático

    Cifra Club Pro

    Aproveite o Cifra Club com benefícios exclusivos e sem anúncios
    Cifra Club Pro
    Aproveite o Cifra Club com benefícios exclusivos e sem anúncios
    OK