Cifra Club

Aprenda

Poor Mans Crusade

Iced Earth

Cifra: Principal (violão e guitarra)
tom: A#
Tuning: Eb

Riff 1
eb|-------------------------------------|
Bb|-------------------------------------|
Gb|------6------------------------------|
Db|------4---7---6----------------------|
Ab|-5-4------5---4---5-4----------------|
Eb|-3-2----0---0---0-3-2--0-2-5-3~-2~-0-|
           *   *   *      * *   ah ah *
eb|------------------------------------------|
Bb|------------------------------------------|
Gb|------6-----------------------------------|
Db|------4---7---6---------------------------|
Ab|-5-4------5---4---5-4---------------------|
Eb|-3-2----0---0---0-3-2--//\\-0-2-5-3~-2~-0-|
           *   *   *           * *   ah ah *

Riff 2
Guitar 1
eb|-------------------------------------|
Bb|-------------------------------------|
Gb|-------------------------------------|
Db|------------------4------------------|
Ab|-5-4---------------------5----4------|
Eb|-3-2-2-222-222222---2222---22---2222-|
        * *** ******   ****   **   ****  
eb|--------------------------------|
Bb|--------------------------------|
Gb|--------------------------------|
Db|--------------------------------|
Ab|-5-4----------------------------|
Eb|-3-2-2-222-222222-0-2-5-3~-2~-0-|
        * *** ****** * *   ah ah *

Guitar 2
eb|----------------------------------------|
Bb|-------------7--------------------------|
Gb|---------------7-6-5~~-[tremelo bar]----|
Db|---/7-5-4~~-----------------------------|
Ab|----------------------------------------|
Eb|----------------------------------------|

Riff 3
eb|----------------------------------|
Bb|----------------------------------|
Gb|----------------------------------|
Db|----------------------------------|
Ab|-5-4------------------------------|
Eb|-3-2-2-222-222-222-222-222-222222-|
        * *** *** *** *** *** ******
   "The Holy Ghost..."
eb|-------------------------------|
Bb|-------------------------------|
Gb|-------------------------------|
Db|-------------------------------|
Ab|-5-4-------------------2--4----|
Eb|-3-2-2-222-222-222-222-0--2--0-|
        * *** *** *** ***       *
   "...anymore..."
eb|----------------------------------|
Bb|----------------------------------|
Gb|----------------------------------|
Db|----------------------------------|
Ab|-5-4------------------------------|
Eb|-3-2-2-222-222-222-222-222-222222-|
        * *** *** *** *** *** ******
   "Your souls are..."
eb|-----------------------------------------|
Bb|-----------------------------------------|
Gb|-----------------------------------------|
Db|---------------------------------2--5--4-|
Ab|-5-4--------------------2--4-----0--3--2-|
Eb|-3-2-2-222-222-222-222--0--2--0----------|
        * *** *** *** ***        *
   "...in hell..."

Riff 4
eb|-------------------------------------------------|
Bb|-------------------------------------------------|
Gb|---------------6---------------------------------|
Db|---------------4---7---6-------------------------|
Ab|-5-4-----4---------5---4---5-4-4-4-4-----2--4--5-|
Eb|-3-2-2-2-2-2-2---0---0---0-3-2-2-2-2-2-2-0--2--3-|
        * *   * *   *   *   * * * * *   * *
   "Holy and bright..."

Riff 5
eb|-----------------------------|
Bb|-----------------------------|
Gb|-----------------------------|
Db|-----------------------------|
Ab|-7--7-7-7--7-7--5--5-5--7--5-|
Eb|-5--5-5-5--5-5--3--3-3--5--3-|
    *  * * *  * *  *  * *  *  *  
   "All in all..."
eb|------------------------------|
Bb|------------------------------|
Gb|------------------------------|
Db|------------------------------|
Ab|-5-4-2-4--4-4-4-4--4-4-4--4-4-|
Eb|-3-2-0-2--2-2-2-2--2-2-2--2-2-|
    * * * *  * * * *  * * *  * * 

Play Riff 2
Play Riff 3   "The Holy Land..."
Play Riff 4   "Holy father..."
Play Riff 5   "All in all..."
Play Riff 1   
Play Riff 3   "You'll shed your blood..."
Play Riff 4   "Holy father..."
Play Riff 5   "All in all..."
Play Riff 1


notation:
^   =  bend [ ^ = half, ^^ = whole, etc. ]
^r  =  bend and release
x   =  mute with fret-hand
*   =  mute with palm-hand
X\\ =  pick slide
h   =  hammer-on
p   =  pull-off
~   =  vibrato
t   =  tap-on
/   =  slide up
\   =  slide down
h.  =  harmonics
ah  =  artificial harmonic
(9) =  ghost note
tm  =  trem picking
tr  =  trill
Colaboração e revisão:
  • Taino Vieira
316 exibições
    • ½ Tom
    • A
    • Bb
    • B
    • C
    • Db
    • D
    • Eb
    • E
    • F
    • F#
    • G
    • Ab
  • Adicionar à lista

    0 comentários

    Ver todos os comentários

    Conseguiu tocar?

    0 Tocaram 0 Ainda não

    Grave um vídeo tocando Poor Mans Crusade e nos envie!

    00:00 / 00:00
    outros vídeos desta música
    repetir qualidade Automático
    Outros vídeos desta música
    00:00 / 00:00
    Automático

    Cifra Club Pro

    Aproveite o Cifra Club com benefícios exclusivos e sem anúncios
    Cifra Club Pro
    Aproveite o Cifra Club com benefícios exclusivos e sem anúncios
    OK