Cifra Club

Aprenda

Pure Evil

Iced Earth

Cifra: Principal (violão e guitarra)
tom: F#
Tuning: Eb 

Intro 

Guitar 1                                 x2 
e|---------------------------------------| 
B|---------------------------------------| 
G|-----------2----------7--7-------------| 
D|--4--------2----------7--7-------4--4--| 
A|--4--------0----------5--5-------4--4--| 
E|--2------------------------------2--2--| 

Guitar 2 
                              x8 
e|--17----16----14------------| 
B|-----14----14----17--15-14--| 
G|----------------------------| 
D|----------------------------| 
A|----------------------------| 
E|----------------------------| 

Guitar 1                    x2 
e|--------------------------| 
B|--------------------------| 
G|--2-----2-----4-----5-----| 
D|--2-----2--5--4-----5--5--| 
A|--0-----0--5--2-----3--5--| 
E|-----------3-----------3--| 


Guitar 2 
                 x4              x4 
e|--17-13--------|--19-15--------| 
B|--------17-----|--------19-----| 
G|-----------14--|-----------16--| 
D|---------------|---------------| 
A|---------------|---------------| 
E|---------------|---------------| 

                                                            x2 
e|----------------------------------------------------------| 
B|----------------------------------------------------------| 
G|----------------------------------------------------------| 
D|----------------------------------------------------------| 
A|-7----------------------5-6-7-8--7---------------7------7-| 
E|-5-5-555-555-555-555-5--3-4-5-6--5-5-555-5--5555-5-5555-5-| 
     * *** *** *** *** *  * * *      * *** *  ****   **** 

Verse riff 
e|-----------------------------------------------------------| 
B|-----------------------------------------------------------| 
G|-----------------------------------------------------------| 
D|-----------------------------------------------------------| 
A|-7----------------------8-8-8-7-------------------7------7-| 
E|-5-5-555-555-555-555-5--6-6-6-5-5-555-555-5--5555-5-5555-5-| 
     * *** *** *** *** *          * *** *** *  ****   **** 

"We paint the sky..."                                                         x2 
e|----------------------------------------------------------------------------| 
B|----------------------------------------------------------------------------| 
G|----------------------------------------------------------------------------| 
D|----------------------------------------------------------------------------| 
A|-10---9---8--8--8--7----------------------5-6-7-8--7---------------7------7-| 
E|--8---7---6--6--6--5-5-555-555-555-555-5--3-4-5-6--5-5-555-5--5555-5-5555-5-| 
                       * *** *** *** *** *  * * *      * *** *  ****   **** 
                                                            
e|----------------------------------------------------------| 
B|----------------------------------------------------------| 
G|----------------------------------------------------------| 
D|----------------------------------------------------------| 
A|-7----------------------5-6-7-8--7---------------7------7-| 
E|-5-5-555-555-555-555-5--3-4-5-6--5-5-555-5--5555-5-5555-5-| 
     * *** *** *** *** *  * * *      * *** *  ****   **** 

Verse riff 
e|-----------------------------------------------------------| 
B|-----------------------------------------------------------| 
G|-----------------------------------------------------------| 
D|-----------------------------------------------------------| 
A|-7----------------------8-8-8-7-------------------7------7-| 
E|-5-5-555-555-555-555-5--6-6-6-5-5-555-555-5--5555-5-5555-5-| 
     * *** *** *** *** *          * *** *** *  ****   **** 

"We paint the sky..."                                                         x2 
e|----------------------------------------------------------------------------| 
B|----------------------------------------------------------------------------| 
G|----------------------------------------------------------------------------| 
D|----------------------------------------------------------------------------| 
A|-10---9---8--8--8--7----------------------5-6-7-8--7---------------7------7-| 
E|--8---7---6--6--6--5-5-555-555-555-555-5--3-4-5-6--5-5-555-5--5555-5-5555-5-| 
                       * *** *** *** *** *  * * *      * *** *  ****   **** 

Gutiar 1 
e|-------------------------------------------------------------| 
B|-------------------------------------------------------------| 
G|-------------------------------------------------------------| 
D|-------------3h5-----8---5---7-------------3h5-----8---7---5-| 
A|-0-0-0-000-0-----0-0---0---0---0-0-0-000-0-----0-0---0---0---| 
E|-------------------------------------------------------------| 
   * * * *** *     * *   *   *   * * * *** *     * *   *   *  

Guitar 2 
e|-------------------------------------------------------------| 
B|-----------------------11-8-10-----------------------11-10-8-| 
G|-------------------------------------------------------------| 
D|-8-8-8-7-7-7-8-8-10-10---------8-8-8-7-7-7-8-8-10-10---------| 
A|-------------------------------------------------------------| 
E|-------------------------------------------------------------| 
   * * * * * * * *  *  *         * * * * * * * *  *  *     

Guitar 1                              
e|-----------------------------------| 
B|-----------------------------------| 
G|-----------------------------------| 
D|---------9--7--3-------------------| 
A|---------7--5--3-------------------| 
E|--5-555-----------5-555-5-77-5-4~--| 
    * ***           * *** * ** *    

Guitar 2                                    x3 
e|----------12------------------------------| 
B|-13-12-10----13-----13-12-10--121212-10---| 
G|----------------10---------------------13-| 
D|------------------------------------------| 
A|------------------------------------------| 
E|------------------------------------------| 

Guitar 2 (last time) 
e|----------12-------------------------------| 
B|-13-12-10----13-----13-12-10--121212-10-12-| 
G|----------------10-------------------------| 
D|-------------------------------------------| 
A|-------------------------------------------| 
E|-------------------------------------------| 
      
Clean end 
e|-------0-| 
B|------0--| 
G|-----9---| 
D|----9----| 
A|---7-----| 
E|--0------| 
   
Interlude  

Clean                                Ending (distortion) 
e|-----------------------------------|-------------------------------------| 
B|-----------------------------------|-------------------------------------| 
G|-----------------------------------|-------------------------------------| 
D|--------7--------------------------|--9-8-9------------9-10-9------------| 
A|--8--7-----8--7-6-7---7--7-8-7---7-|--7-6-7------------7--8-7------------| 
E|-----------------------------------|--------000-0-0000--------000-0-0000-| 
                                              *** * ****        *** * **** 

Distortion 
e|-----------------------------------------------------------------------| 
B|-----------------------------------------------------------------------| 
G|-------------------9---------------------------------------------------| 
D|-10-------9--------7-------10-------9-8-9------------9-10-9------------| 
A|--8-------7-----------------8-------7-6-7------------7--8-7------------| 
E|----0-0-0---000-0----0-0-0----0-0-0-------000-0-0000--------000-0-0000-| 
      * * *   *** *    * * *    * * *       *** * ****        *** * **** 

Solo Rhythm 
e|----------------------------------------------------------------| 
B|----------------------------------------------------------------| 
G|----------------------------------------------------------------| 
D|----------------------------------------------------------------| 
A|-3----3--2-----------------------4----4--5----------------------| 
E|-1-00-1--0-0-000-0-000-0-000-00--2-00-2--3-3-333-3-333-3-333-33-| 
   * ** *    * *** * *** * *** **  * ** *    * *** * *** * *** ** 

Solo 

Play this twice 
                     x4                 x4 
e|-12-10-------------|--10-8------------| 
B|-------13-12-10----|-------11-10-8----| 
G|----------------12-|---------------10-| 
D|-------------------|------------------| 
A|-------------------|------------------| 
E|-------------------|------------------| 
                                         
Then the faster part 
                  x8             x8 
e|-10h12-12p10p8--|--8h10-10p8p7-| 
B|----------------|--------------| 
G|----------------|--------------| 
D|----------------|--------------| 
A|----------------|--------------| 
E|----------------|--------------| 

                  x8             x4 
e|-10h12-12p10p8--|--8h10-10p8p7-|--7~-| 
B|----------------|--------------|--8~-| 
G|----------------|--------------|-----| 
D|----------------|--------------|-----| 
A|----------------|--------------|-----| 
E|----------------|--------------|-----| 

End solo 

Guitar 1                            x4   
e|----------------------------------|-------------| 
B|----------------------------------|-------------| 
G|----------------------------------|-------------| 
D|---3--2--3--2~~------3--2--3--5~~-|--7-10--7-10-| 
A|----------------------------------|--5--8--5--8-| 
E|----------------------------------|-------------| 

Guitar 2                            x4   
e|----------------------------------|-------------| 
B|----------------------------------|-------------| 
G|---5--4--5--4~~------5--4--5--7~~-|-------------| 
D|----------------------------------|--7-10--7-10-| 
A|----------------------------------|--5--8--5--8-| 
E|----------------------------------|-------------| 

Solo Rhythm 
e|--------------------------------------------------------------| 
B|--------------------------------------------------------------| 
G|--------------------------------------------------------------| 
D|--9-------9-------9-------9-------9-------9-------------------| 
A|--7-7-7-7-7-7-7-7-7-7-7-7-7-7-7-7-7-7-7-7-7-7-7--8-7-8-10-8-7-| 
E|--------------------------------------------------------------| 
      * * *   * * *   * * *   * * *   * * *   * *   

                                                                Last time 
e|--------------------------------------------------------------|-------------| 
B|--------------------------------------------------------------|-------------| 
G|--------------------------------------------------------------|-------------| 
D|--7-------7-------7-------7-----------------------------------|--7-10--7-10-| 
A|--5-5-5-5-5-5-5-5-5-5-5-5-5-5-5-5-8-------8------7-------7--7-|--5--8--5--8-| 
E|----------------------------------6-6-6-6-6-6-6--5-5-5-5-5--5-|-------------| 
      * * *   * * *   * * *   * * *   * * *   * *    * * *  

Solo 
e|---------------------------------------------------------------------| 
B|--------------------------------------13----12---13---12----13---12--| 
G|------------------------------9-9-9-9----9-9--9-9--9-9--9-9----9---9-| 
D|----------------------9-9-9-9----------------------------------------| 
A|--7-7-7-7-10-10-10-10------------------------------------------------| 
E|---------------------------------------------------------------------| 
      * * *     *  *  *   * * *   * * *    * *  * *  * *  * *    *   * 

e|-----------------13~--/15-12~~-| 
B|--14^--13-12-10----------------| 
G|-------------------------------| 
D|-------------------------------| 
A|-------------------------------| 
E|-------------------------------| 
   
Repeat above 

End solo 

e|-----------------------------------------------------------------------| 
B|--------------------------------4-444-5-555-------------------------4\-| 
G|--------------------5-555-4-444-------------4-444-5-555-5-555-4-444----| 
D|--2-222-5-555-4-444----------------------------------------------------| 
A|-----------------------------------------------------------------------| 
E|-----------------------------------------------------------------------| 

Repeat verse, intro, and part after interlude. 


notation: 
^   =  bend [ ^ = half, ^^ = whole, etc. ] 
^r  =  bend and release 
x   =  mute with fret-hand 
*   =  mute with palm-hand 
X\\ =  pick slide 
h   =  hammer-on 
p   =  pull-off 
~   =  vibrato 
t   =  tap-on 
/   =  slide up 
\   =  slide down 
h.  =  harmonics 
ah  =  artificial harmonic 
(9) =  ghost note 
tm  =  trem picking 
tr  =  trill 
Composição de Jon Schaffer / Randall Shawver
3.181 exibições
    • ½ Tom
    • A
    • Bb
    • B
    • C
    • Db
    • D
    • Eb
    • E
    • F
    • F#
    • G
    • Ab
  • Adicionar à lista

    0 comentários

    Ver todos os comentários

    Conseguiu tocar?

    0 Tocaram 0 Ainda não

    Grave um vídeo tocando Pure Evil e nos envie!

    00:00 / 00:00
    outros vídeos desta música
    repetir qualidade Automático
    Outros vídeos desta música
    00:00 / 00:00
    Automático

    Cifra Club Pro

    Aproveite o Cifra Club com benefícios exclusivos e sem anúncios
    Cifra Club Pro
    Aproveite o Cifra Club com benefícios exclusivos e sem anúncios
    OK