Cifra Club

Aprenda

Scarred

Iced Earth

Tab de baixo: Principal
Listen For Timing

F#||--------------------|------------------|-------------------|
C#||*-------------------|------------------|-------------------|
G#||*-------------------|------------------|-------------------|
D#||---0----------------|------------------|--1----------------|
                                                                               
-------------------|-------------------|------------------|-------------------|
-------------------|-------------------|------------------|-------------------|
-------------------|-------------------|------------------|-------------------|
--1----------------|--0----------------|------------------|--1----------------|
                                                           
---------------------|-------------------|------------------|
---------------------|-------------------|------------------|
---------------------|-------------------|------------------|
----------1/-13------|--0----------------|------------------|
                                                                            
-------------------|-------------------|-------------------|------------------|
-------------------|-------------------|-------------------|------------------|
-------------------|-------------------|-------------------|------------------|
--1----------------|--1----------------|--0----------------|------------------|
                                                                  
-------------------|---------------------||----------------------|
-------------------|---------------------||*---------------------|
-------------------|---------------------||*---------------------|
--1----------------|----------1/-13------||---0----------0----0--|

                                                            3x
------------------|---------------------|-------------------||
------------------|---------------------|------------------*||
------------------|--1----------1----1--|------------------*||
------------------|---------------------|-------------------||
                                                        
---------------------|------------------|-------------------|
-------------2-------|------------------|-------------------|
------------------2--|------------------|-------------------|
--0------------------|------------------|--1----------------|
                                                             
-------------------|---------------------|------------------|
-------------------|-------------2-------|------------------|
-------------------|------------------2--|------------------|
--1----------------|--0------------------|------------------|
                                                        
-------------------|---------------------||----------------------|
-------------------|---------------------||*-------------2-------|
-------------------|---------------------||*------------------2--|
--1----------------|----------1/-13------||---0------------------|

                                                           3x
------------------|-------------------|--------------------||
------------------|-------------------|-------------------*||
------------------|-------------------|-------------------*||
------------------|--1----------------|--1-----------------||
                                                                
----------------------|------------------|---------------------|
*---------------------|------------------|---------------------|
*---------------------|------------------|--1----------1----1--|
---0----------0----0--|------------------|---------------------|
                   3x                                         
-------------------||---------------------|------------------|
------------------*||-------------2-------|------------------|
------------------*||------------------2--|------------------|
-------------------||--0------------------|------------------|
                                                              
-------------------|-------------------|---------------------|
-------------------|-------------------|-------------2-------|
-------------------|-------------------|------------------2--|
--1----------------|--1----------------|--0------------------|
                                                             
------------------|-------------------|---------------------|
------------------|-------------------|---------------------|
------------------|-------------------|---------------------|
------------------|--1----------------|----------1/-13------|
                                                      
---------------------|------------------|-------------------|
-------------2-------|------------------|-------------------|
------------------2--|------------------|-------------------|
--0------------------|------------------|--1----------------|

-------------------||----------------------|------------------|
-------------------||*-------------2-------|------------------|
-------------------||*------------------2--|------------------|
--1----------------||---0------------------|------------------|

                                        2x                       
-------------------|--------------------||----------------------|
-------------------|-------------------*||*---------------------|
-------------------|-------------------*||*---------------------|
--1----------------|--1-----------------||---0----------0----0--|

                                                            3x
------------------|---------------------|-------------------||
------------------|---------------------|------------------*||
------------------|--1----------1----1--|------------------*||
------------------|---------------------|-------------------||
                                                                            
------------------|------------------|------------------|------------------|
------------------|------------------|------------------|------------------|
------------------|------------------|------------------|------------------|
------------------|------------------|------------------|------------------|
                                                                       
|--------------------|------------------|-------------------|------------------|
|*-------------------|------------------|-------------------|------------------|
|*-------------------|------------------|-------------------|------------------|
|---0----------------|------------------|--3----------------|------------------|
                                                                        
-------------------|------------------|-------------------|-------------------||
-------------------|------------------|-------------------|------------------*||
-------------------|------------------|-------------------|------------------*||
--1----------------|------------------|--0----------------|-------------------||
                                                             
-------------------------------|----------------------------------|
-------------------------------|----------------------------------|
-------------------------------|----------------------------------|
--0----0-0-0-0-0-0-0-0-0-0-0-0-|--0-0-0-0-0-0-0-0-0-0-0-0-0-0-0-0-|
                                                              
-------------------------------|----------------------------------|
-------------------------------|----------------------------------|
-------------------------------|----------------------------------|
--1----1-1-1-1-1-1-1-1-1-1-1-1-|--1-1-1-1-1-1-1-1-1-1-1-1-1-1-1-1-|
                                                           
-------------------------------|----------------------------------|
-------------------------------|----------------------------------|
-------------------------------|----------------------------------|
--0----0-0-0-0-0-0-0-0-0-0-0-0-|--0-0-0-0-0-0-0-0-0-0-0-0-0-0-0-0-|
                                                              
-------------------------------|----------------------------------|
-------------------------------|----------------------------------|
-------------------------------|----------------------------------|
--1----1-1-1-1-1-1-1-1-1-1-1-1-|--1-1-1-1-1-1-1-1-1-1-1-1-1-1-1-1-|
                                                         
-------------------------------|----------------------------------|
-------------------------------|----------------------------------|
-------------------------------|----------------------------------|
--0----0-0-0-0-0-0-0-0-0-0-0-0-|--0-0-0-0-0-0-0-0-0-0-0-0-0-0-0-0-|
                                                                   
-------------------------------|----------------------------------|
-------------------------------|----------------------------------|
-------------------------------|----------------------------------|
--1----1-1-1-1-1-1-1-1-1-1-1-1-|--1-1-1-1-1-1-1-1-1-1-1-1-1-1-1-1-|
                                                       
-------------------------------|----------------------------------|
-------------------------------|----------------------------------|
-------------------------------|----------------------------------|
--0----0-0-0-0-0-0-0-0-0-0-0-0-|--0-0-0-0-0-0-0-0-0-0-0-0-0-0-0-0-|
                                                            
-------------------------------|----------------------------------|
-------------------------------|----------------------------------|
-------------------------------|----------------------------------|
--1----1-1-1-1-1-1-1-1-1-1-1-1-|--1-1-1-1-1-1-1-1-1-1-1-1-1-1-1-1-|
                                                               
-------------------------------|----------------------------------|
-------------------------------|----------------------------------|
-------------------------------|----------------------------------|
--0----0-0-0-0-0-0-0-0-0-0-0-0-|--0-0-0-0-0-0-0-0-0-0-0-0-0-0-0-0-|
                                                              
-------------------------------|----------------------------------|
-------------------------------|----------------------------------|
-------------------------------|----------------------------------|
--1----1-1-1-1-1-1-1-1-1-1-1-1-|--1-1-1-1-1-1-1-1-1-1-1-1-1-1-1-1-|
                                                              
-------------------------------|----------------------------------|
-------------------------------|----------------------------------|
-------------------------------|----------------------------------|
--0----0-0-0-0-0-0-0-0-0-0-0-0-|--0-0-0-0-0-0-0-0-0-0-0-0-0-0-0-0-|
                                                              
-------------------------------|----------------------------------|
-------------------------------|----------------------------------|
-------------------------------|----------------------------------|
--1----1-1-1-1-1-1-1-1-1-1-1-1-|--1-1-1-1-1-1-1-1-1-1-1-1-1-1-1-1-|
                                                              
-------------------------------|----------------------------------|
-------------------------------|----------------------------------|
-------------------------------|----------------------------------|
--0----0-0-0-0-0-0-0-0-0-0-0-0-|--0-0-0-0-0-0-0-0-0-0-0-0-0-0-0-0-|
                                                               
-------------------------------|----------------------------------|
-------------------------------|----------------------------------|
-------------------------------|----------------------------------|
--1----1-1-1-1-1-1-1-1-1-1-1-1-|--1-1-1-1-1-1-1-1-1-1-1-1-1-1-1-1-|
                                                                   
-------------------------------|----------------------------------|
-------------------------------|----------------------------------|
-------------------------------|----------------------------------|
--0----0-0-0-0-0-0-0-0-0-0-0-0-|--0-0-0-0-0-0-0-0-0-0-0-0-0-0-0-0-|
                                                            
-------------------------------|----------------------------------|
-------------------------------|----------------------------------|
-------------------------------|----------------------------------|
--1----1-1-1-1-1-1-1-1-1-1-1-1-|--1-1-1-1-1-1-1-1-1-1-1-1-1-1-1-1-|
                                                                 
-------------------------------|----------------------------------|
-------------------------------|----------------------------------|
-------------------------------|----------------------------------|
--0----0-0-0-0-0-0-0-0-0-0-0-0-|--0-0-0-0-0-0-0-0-0-0-0-0-0-0-0-0-|
                                                                   
-------------------------------|----------------------------------|
-------------------------------|----------------------------------|
-------------------------------|----------------------------------|
--1----1-1-1-1-1-1-1-1-1-1-1-1-|--1-1-1-1-1-1-1-1-1-1-1-1-1-1-1-1-|
                                                             
-------------------------------|----------------------------------|
-------------------------------|----------------------------------|
-------------------------------|----------------------------------|
--0----0-0-0-0-0-0-0-0-0-0-0-0-|--0-0-0-0-0-0-0-0-0-0-0-0-0-0-0-0-|
                                                                
-------------------------------|----------------------------------|
-------------------------------|----------------------------------|
-------------------------------|----------------------------------|
--1----1-1-1-1-1-1-1-1-1-1-1-1-|--1-1-1-1-1-1-1-1-1-1-1-1-1-1-1-1-|
                                                                 
|----------------------|------------------|---------------------|
|*---------------------|------------------|---------------------|
|*---------------------|------------------|--1----------1----1--|
|---0----------0----0--|------------------|---------------------|

                   3x                                                       
-------------------||---------------------------|--------------------------|
------------------*||*--------------------------|--------------------------|
------------------*||*--------------------------|--------------------------|
-------------------||---0--0--0--0--0--0--0--0--|--0--0--0--0--0--0--0--0--|
                                                                             
--------------------------|---------------------------||-------------------||
--------------------------|--------------------------*||-------------------||
--1--1--1--1--1--1--1--1--|--1--1--1--1--1--1--1--1--*||--0----------------||
--------------------------|---------------------------||-------------------||
Colaboração e revisão:
  • Taino Vieira
18 exibições

0 comentários

Ver todos os comentários
00:00 / 00:00
outros vídeos desta música
repetir qualidade Automático
Outros vídeos desta música
00:00 / 00:00
Automático

Cifra Club Pro

Aproveite o Cifra Club com benefícios exclusivos e sem anúncios
Cifra Club Pro
Aproveite o Cifra Club com benefícios exclusivos e sem anúncios
OK