Cifra Club

Aprenda

Winter Nights

Iced Earth

Tab de baixo: Principal
listen for timing

G||--------------------------------|----------------------------------|
D||--------------------------------|----------------------------------|
A||----------2-3-2----------2-3-2--|----------2-3-2-0-2-0---0---------|
E||--0-0-0-0--------0-0-0-0--------|--0-0-0-0-------------3---3-1-3-1-|
                                                                    
--------------------------------|----------------------------------|
--------------------------------|----------------------------------|
----------2-3-2----------2-3-2--|----------2-3-2-0-2-0---0---------|
--0-0-0-0--------0-0-0-0--------|--0-0-0-0-------------3---3-1-3-1-|
                                                                    
--------------------------------|----------------------------------|
--------------------------------|----------------------------------|
----------2-3-2----------2-3-2--|----------2-3-2-0-2-0---0---------|
--0-0-0-0--------0-0-0-0--------|--0-0-0-0-------------3---3-1-3-1-|
                                                             
--------------------------------|----------------2-4-2---2---------|
--------------------------------|----------------------5---5-3-5-0-|
----------2-3-2----------2-3-2--|----------2-3-2-------------------|
--0-0-0-0--------0-0-0-0--------|--0-0-0-0-------------------------|
                                                   
------------------|------------------------------------------|
--3-5-7-5-3-3-5-0-|------------------------------------------|
------------------|--7--7-7-7-7-7-7-7-8--8-8-8-8-8-8-8-8-8-8-|
------------------|------------------------------------------|
                                    
------------------------------------------|
------------------------------------------|
--7--7-7-7-7-7-7-7-8--8-8-8-8-8-8-8-8-8-8-|
------------------------------------------|
                                                                            
------------------------------------------|--------------------------------|
------------------------------------------|--------------------------------|
--7--7-7-7-7-7-7-7-8--8-8-8-8-8-8-8-8-8-8-|--7--7-7-7-7--------------------|
------------------------------------------|-------------8-7-6--6-6-6-6--6/-|
                                           
------------------------------------------|
------------------------------------------|
--7--7-7-7-7-7-7-7-8--8-8-8-8-8-8-8-8-8-8-|
------------------------------------------|
                                           
------------------------------------------|
------------------------------------------|
--7--7-7-7-7-7-7-7-8--8-8-8-8-8-8-8-8-8-8-|
------------------------------------------|
                                                                     
------------------------------------------|--------------------------------|
------------------------------------------|--------------------------------|
--7--7-7-7-7-7-7-7-8--8-8-8-8-8-8-8-8-8-8-|--7--7-7-7-7--------------------|
------------------------------------------|-------------8-7-6--6-6-6-6--6/-|
                                     
------------------------------------------|
------------------------------------------|
--7--7-7-7-7-7-7-7-8--8-8-8-8-8-8-8-8-8-8-|
------------------------------------------|
                                           
------------------------------------------|
------------------------------------------|
--7--7-7-7-7-7-7-7-8--8-8-8-8-8-8-8-8-8-8-|
------------------------------------------|
                                                                  
------------------------------------------|--------------------------------|
------------------------------------------|--------------------------------|
--7--7-7-7-7-7-7-7-8--8-8-8-8-8-8-8-8-8-8-|--7--7-7-7-7--------------------|
------------------------------------------|-------------8-7-6--6-6-6-6--6/-|
                                                                      
----------------------------------|----------------------------------|
----------------------------------|----------------------------------|
----------------------------------|----------------------------------|
--3-2-0-0-5-3-0-0-3-2-0-0-5-3-0-0-|--3-2-0-0-5-3-0-0-3-2-0-0-5-3-0-0-|
                                                                  
----------------------------------|----------------------------------|
----------------------------------|----------------------------------|
----------------------------------|----------------------------------|
--3-2-0-0-5-3-0-0-3-2-0-0-5-3-0-0-|--3-2-0-0-5-3-0-0-3-2-0-0-5-3-0-0-|
                                                                     
----------------------------------|----------------------------------|
----------------------------------|----------------------------------|
----------------------------------|----------------------------------|
--3-2-0-0-5-3-0-0-3-2-0-0-5-3-0-0-|--3-2-0-0-5-3-0-0-3-2-0-0-5-3-0-0-|
                                                                      
----------------------------------|----------------------------------|
----------------------------------|----------------------------------|
----------------------------------|----------------------------------|
--3-2-0-0-5-3-0-0-3-2-0-0-5-3-0-0-|--3-2-0-0-5-3-0-0-3-2-0-0-5-3-0-0-|
                                                                  
----------------------------------|----------------------------------|
----------------------------------|----------------------------------|
----------------------------------|----------------------------------|
--3-2-0-0-5-3-0-0-3-2-0-0-5-3-0-0-|--3-2-0-0-5-3-0-0-3-2-0-0-5-3-0-0-|
                                                                      
----------------------------------|----------------------------------|
----------------------------------|----------------------------------|
----------------------------------|----------------------------------|
--3-2-0-0-5-3-0-0-3-2-0-0-5-3-0-0-|--3-2-0-0-5-3-0-0-3-2-0-0-5-3-0-0-|
                                                                 
----------------------------------|----------------------------------|
----------------------------------|----------------------------------|
----------------------------------|----------------------------------|
--3-2-0-0-5-3-0-0-3-2-0-0-5-3-0-0-|--3-2-0-0-5-3-0-0-3-2-0-0-5-3-0-0-|
                                                                      
----------------------------------|----------------------------------|
----------------------------------|----------------------------------|
----------------------------------|----------------------------------|
--3-2-0-0-5-3-0-0-3-2-0-0-5-3-0-0-|--3-2-0-0-5-3-0-0-3-2-0-0-5-3-0-0-|
                                                                      
----------------------------------|----------------------------------|
----------------------------------|----------------------------------|
----------------------------------|----------------------------------|
--3-2-0-0-5-3-0-0-3-2-0-0-5-3-0-0-|--3-2-0-0-5-3-0-0-3-2-0-0-5-3-0-0-|
                                                               
----------------------------------|----------------------------------|
----------------------------------|----------------------------------|
----------------------------------|--3-3-3-3-3-3-3-3-5-5-5-5-5-5-5-5-|
--3-2-0-0-5-3-0-0-3-2-0-0-5-3-0-0-|----------------------------------|
                                                                      
----------------------------------|----------------------------------|
----------------------------------|----------------------------------|
----------------------------------|----------------------------------|
--3-2-0-0-5-3-0-0-3-2-0-0-5-3-0-0-|--3-2-0-0-5-3-0-0-3-2-0-0-5-3-0-0-|
                                                                      
----------------------------------|----------------------------------|
----------------------------------|----------------------------------|
----------------------------------|--3-3-3-3-3-3-3-3-5-5-5-5-5-5-5-5-|
--3-2-0-0-5-3-0-0-3-2-0-0-5-3-0-0-|----------------------------------|
                                                                  
----------------------------------|----------------------------------|
----------------------------------|----------------------------------|
----------------------------------|----------------------------------|
--3-2-0-0-5-3-0-0-3-2-0-0-5-3-0-0-|--3-2-0-0-5-3-0-0-3-2-0-0-5-3-0-0-|
                                                              
----------------------------------|----------------------------------|
----------------------------------|----------------------------------|
----------------------------------|--3-3-3-3-3-3-3-3-5-5-5-5-5-5-5-5-|
--3-2-0-0-5-3-0-0-3-2-0-0-5-3-0-0-|----------------------------------|
                                                             
-------------------|------|------|--------------------------------|
-------------------|------|------|--------------------------------|
-------------------|------|------|----------2-3-2----------2-3-2--|
--0----------------|------|------|--0-0-0-0--------0-0-0-0--------|
                                                            
----------------------------------|--------------------------------|
----------------------------------|--------------------------------|
----------2-3-2-0-2-0---0---------|----------2-3-2----------2-3-2--|
--0-0-0-0-------------3---3-1-3-1-|--0-0-0-0--------0-0-0-0--------|
                                                               
----------------------------------|--------------------------------|
----------------------------------|--------------------------------|
----------2-3-2-0-2-0---0---------|----------2-3-2----------2-3-2--|
--0-0-0-0-------------3---3-1-3-1-|--0-0-0-0--------0-0-0-0--------|
                                                      
----------------2-4-2---2---------|------------------|
----------------------5---5-3-5-0-|--3-5-7-5-3-3-5-0-|
----------2-3-2-------------------|------------------|
--0-0-0-0-------------------------|------------------|
                                        
------------------------------------------|
------------------------------------------|
--7--7-7-7-7-7-7-7-8--8-8-8-8-8-8-8-8-8-8-|
------------------------------------------|
                                           
------------------------------------------|
------------------------------------------|
--7--7-7-7-7-7-7-7-8--8-8-8-8-8-8-8-8-8-8-|
------------------------------------------|
                                                                            
------------------------------------------|--------------------------------|
------------------------------------------|--------------------------------|
--7--7-7-7-7-7-7-7-8--8-8-8-8-8-8-8-8-8-8-|--7--7-7-7-7--------------------|
------------------------------------------|-------------8-7-6--6-6-6-6--6/-|
                               
------------------------------------------|
------------------------------------------|
--7--7-7-7-7-7-7-7-8--8-8-8-8-8-8-8-8-8-8-|
------------------------------------------|
                                           
------------------------------------------|
------------------------------------------|
--7--7-7-7-7-7-7-7-8--8-8-8-8-8-8-8-8-8-8-|
------------------------------------------|
                                                                       
------------------------------------------|--------------------------------|
------------------------------------------|--------------------------------|
--7--7-7-7-7-7-7-7-8--8-8-8-8-8-8-8-8-8-8-|--7--7-7-7-7--------------------|
------------------------------------------|-------------8-7-6--6-6-6-6--6/-|
                                   
------------------------------------------|
------------------------------------------|
--7--7-7-7-7-7-7-7-8--8-8-8-8-8-8-8-8-8-8-|
------------------------------------------|
                                           
------------------------------------------|
------------------------------------------|
--7--7-7-7-7-7-7-7-8--8-8-8-8-8-8-8-8-8-8-|
------------------------------------------|
                                                                 
------------------------------------------|--------------------------------|
------------------------------------------|--------------------------------|
--7--7-7-7-7-7-7-7-8--8-8-8-8-8-8-8-8-8-8-|--7--7-7-7-7--------------------|
------------------------------------------|-------------8-7-6--6-6-6-6--6/-|
                                                                    
--------------------------------|----------------------------------|
--------------------------------|----------------------------------|
--7-------------8-8-8-8-5-5-5-5-|--7---7-----------8-8-8-8-5-5-5-5-|
-----0--0-0-0-0-----------------|----0---0-0-0-0-0-----------------|
                                                                
--------------------------------|------------------------------|
--------------------------------|------------------------------|
--7-------------8-8-8-8-5-5-5-5-|--3--3--3-3-3-3-5--5--5-5-5-5-|
-----0--0-0-0-0-----------------|------------------------------|

--------------------------------|----------------------------------|
--------------------------------|----------------------------------|
--7-------------8-8-8-8-5-5-5-5-|--7---7-----------8-8-8-8-5-5-5-5-|
-----0--0-0-0-0-----------------|----0---0-0-0-0-0-----------------|
                                                                
--------------------------------|------------------------------|
--------------------------------|------------------------------|
--7-------------8-8-8-8-5-5-5-5-|--3--3--3-3-3-3-5--5--5-5-5-5-|
-----0--0-0-0-0-----------------|------------------------------|
                                                                
--------------------------------|----------------------------------|
--------------------------------|----------------------------------|
--7-------------8-8-8-8-5-5-5-5-|--7---7-----------8-8-8-8-5-5-5-5-|
-----0--0-0-0-0-----------------|----0---0-0-0-0-0-----------------|
                                                                
--------------------------------|------------------------------|
--------------------------------|------------------------------|
--7-------------8-8-8-8-5-5-5-5-|--3--3--3-3-3-3-5--5--5-5-5-5-|
-----0--0-0-0-0-----------------|------------------------------|
                                                            
-------------------|-------------------|-------------------|
-------------------|-------------------|-------------------|
-------------------|-------------------|-------------------|
--0----------------|--0----------------|--0----------------|
                                                              
----------------------|-------------------|------------------|
----------------------|-------------------|------------------|
--3------3--5------5--|-------------------|------------------|
----------------------|--0----------------|------------------|
Colaboração e revisão:
  • Taino Vieira
37 exibições

0 comentários

Ver todos os comentários

Conseguiu tocar?

0 Tocaram 0 Ainda não

Grave um vídeo tocando Winter Nights e nos envie!

00:00 / 00:00
outros vídeos desta música
repetir qualidade Automático
Outros vídeos desta música
00:00 / 00:00
Automático

Cifra Club Pro

Aproveite o Cifra Club com benefícios exclusivos e sem anúncios
Cifra Club Pro
Aproveite o Cifra Club com benefícios exclusivos e sem anúncios
OK