Cifra Club

Aprenda

Pieces

Icon For Hire

Cifra: Principal (violão e guitarra)
Já pensou em usar uma coleção de roupas do Cifra Club? Responda as perguntas abaixo e nos ajude nessa missão! →
tom: B
Drop Db

Eb|-----------------------------------------------------------------|
Bb|-----------------------------------------------------------------|
Gb|-----10---10-9-7-9-7-9---------7---------------------------------| (2x)
Db|-0-0----0--------------10-7-10---10-7----------------------------|
Ab|-----------------------------------------------------------------|
Db|-----------------------------------------------------------------| 

Guitarra 1
Eb|-----------------------------------------------------------------|
Bb|-----------------------------------------------------------------|
Gb|-----10---10-9-7-9-7-9---------7---------------------------------| (4x)
Db|-0-0----0--------------10-7-10---10-7----------------------------|
Ab|-----------------------------------------------------------------|
Db|-----------------------------------------------------------------| 

Guitarra 2
Eb|-----------------------------------------------------------------|
Bb|-----------------------------------------------------------------|
Gb|--------------------3---3--3--3-3---3----------------------------|
Db|-0---0--0--0-0--0---3---3--3--3-3---3----------------------------|
Ab|-0---0--0--0-0--0---1---1--1--1-1---1----------------------------|
Db|-0---0--0--0-0--0------------------------------------------------| 

Eb|-----------------------------------------------------------------|
Bb|-----------------------------------------------------------------|
Gb|-5---5--5--5-5--5---3---3--5--5-5---5---0~-----------------------|
Db|-5---5--5--5-5--5---3---3--5--5-5---5---0~-----------------------|
Ab|-3---3--3--3-3--3---1---1--3--3-3---3---0~-----------------------|
Db|-----------------------------------------------------------------| 

[Pré-Refrão]

Eb|-----------------------------------------------------------------|
Bb|-----------------------------------------------------------------|
Gb|-----------------------------------------------------------------|
Db|-8-8-8-8--8---10-10-10-10--10---7-7-7-7-7--7---5----5------------|
Ab|-8-8-8-8--8---10-10-10-10--10---7-7-7-7-7--7---5----5------------|
Db|-8-8-8-8--8---10-10-10-10--10---7-7-7-7-7--7---5----5------------| 

[Refrão]

Eb|-----------------------------------------------------------------|
Bb|-----------------------------------------------------------------|
Gb|----------------------3--3--3---3---3--3-------------------------|
Db|-0--0--0---0---0--0---3--3--3---3---3--3-------------------------|
Ab|-0--0--0---0---0--0---1--1--1---1---1--1-------------------------|
Db|-0--0--0---0---0--0----------------------------------------------| 

Eb|-----------------------------------------------------------------|
Bb|-----------------------------------------------------------------|
Gb|-----------------------------------------------------------------|
Db|-3--3--3---3---3--3---7--7--7---7---7--7-------------------------|
Ab|-3--3--3---3---3--3---7--7--7---7---7--7-------------------------|
Db|-3--3--3---3---3--3---7--7--7---7---7--7-------------------------| 

Eb|-----------------------------------------------------------------|
Bb|-----------------------------------------------------------------|
Gb|----------------------3--3--3---3---3--3-------------------------|
Db|-0--0--0---0---0--0---3--3--3---3---3--3-------------------------|
Ab|-0--0--0---0---0--0---1--1--1---1---1--1-------------------------|
Db|-0--0--0---0---0--0----------------------------------------------| 

Eb|-----------------------------------------------------------------|
Bb|-----------------------------------------------------------------|
Gb|-----------------------------------------------------------------|
Db|-3---3---3-3-----7---7---7-7-------------------------------------|
Ab|-3---3---3-3-----7---7---7-7-------------------------------------|
Db|-3---3---3-3-----7---7---7-7-------------------------------------| 

Guitarra 1
Eb|-----------------------------------------------------------------|
Bb|-----------------------------------------------------------------|
Gb|-----10---10-9-7-9-7-9---------7---------------------------------|  (4x)
Db|-0-0----0--------------10-7-10---10-7----------------------------|
Ab|-----------------------------------------------------------------|
Db|-----------------------------------------------------------------| 

Guitarra 2
Eb|-----------------------------------------------------------------|
Bb|-----------------------------------------------------------------|
Gb|--------------------3---3--5--5-5---5---0~-----------------------|
Db|-0---0--0--0-0--0---3---3--5--5-5---5---0~-----------------------|
Ab|-0---0--0--0-0--0---1---1--3--3-3---3---0~-----------------------|
Db|-0---0--0--0-0--0------------------------------------------------| 

[Pré-Refrão]

Eb|-----------------------------------------------------------------|
Bb|-----------------------------------------------------------------|
Gb|-----------------------------------------------------------------|
Db|-8-8-8-8--8---10-10-10-10--10---7-7-7-7-7--7---5----5------------|
Ab|-8-8-8-8--8---10-10-10-10--10---7-7-7-7-7--7---5----5------------|
Db|-8-8-8-8--8---10-10-10-10--10---7-7-7-7-7--7---5----5------------| 

[Refrão]

Eb|-----------------------------------------------------------------|
Bb|-----------------------------------------------------------------|
Gb|----------------------3--3--3---3---3--3-------------------------|
Db|-0--0--0---0---0--0---3--3--3---3---3--3-------------------------|
Ab|-0--0--0---0---0--0---1--1--1---1---1--1-------------------------|
Db|-0--0--0---0---0--0----------------------------------------------| 

Eb|-----------------------------------------------------------------|
Bb|-----------------------------------------------------------------|
Gb|-----------------------------------------------------------------|
Db|-3--3--3---3---3--3---7--7--7---7---7--7-------------------------|
Ab|-3--3--3---3---3--3---7--7--7---7---7--7-------------------------|
Db|-3--3--3---3---3--3---7--7--7---7---7--7-------------------------| 

Eb|-----------------------------------------------------------------|
Bb|-----------------------------------------------------------------|
Gb|----------------------3--3--3---3---3--3-------------------------|
Db|-0--0--0---0---0--0---3--3--3---3---3--3-------------------------|
Ab|-0--0--0---0---0--0---1--1--1---1---1--1-------------------------|
Db|-0--0--0---0---0--0----------------------------------------------| 

Eb|-----------------------------------------------------------------|
Bb|-----------------------------------------------------------------|
Gb|-----------------------------------------------------------------|
Db|-3---3---3-3-----7---7---7-7-------------------------------------|
Ab|-3---3---3-3-----7---7---7-7-------------------------------------|
Db|-3---3---3-3-----7---7---7-7-------------------------------------| 

Guitarra 1
Eb|-----------------------------------------------------------------|
Bb|-----------------------------------------------------------------|
Gb|-----10---10-9-7-9-7-9---------7---------------------------------|  (2x)
Db|-0-0----0--------------10-7-10---10-7----------------------------|
Ab|-----------------------------------------------------------------|
Db|-----------------------------------------------------------------| 

Guitarra 2
Eb|-----------------------------------------------------------------|
Bb|-----------------------------------------------------------------|
Gb|-----------------------------------------------------------------|
Db|-0-0-0--------------0-0-0------------------------7---------------|
Ab|-0-0-0--------------0-0-0------------------------7---------------|
Db|-0-0-0--------------0-0-0------------------------7---------------| 

[Ponte]

Eb|-----------------------------------------------------------------|
Bb|-----------------------------------------------------------------|
Gb|-----------------------------------------------------------------|
Db|-0---8---0---10---8-7-8---8---8--12---10---8---------------------|
Ab|-0---8---0---10---8-7-8---8---8--12---10---8---------------------|
Db|-0---8---0---10---8-7-8---8---8--12---10---8---------------------| 

Eb|-----------------------------------------------------------------|
Bb|-----------------------------------------------------------------|
Gb|-----------------------------------------------------------------|
Db|-10--10--10--14--12--10-8---8---8-10---10------------------------|
Ab|-10--10--10--14--12--10-8---8---8-10---10------------------------|
Db|-10--10--10--14--12--10-8---8---8-10---10------------------------| 

Guitarra 1
Eb|-----------------------------------------------------------------|
Bb|-----------------------------------------------------------------|
Gb|-----10---10-9-7-9-7-9---------7---------------------------------|  (2x)
Db|-0-0----0--------------10-7-10---10-7----------------------------|
Ab|-----------------------------------------------------------------|
Db|-----------------------------------------------------------------| 

Guitarra 2
Eb|-----------------------------------------------------------------|
Bb|-----------------------------------------------------------------|
Gb|-----------------------------------------------------------------|
Db|-0-0-0--------------0-0-0------------------------7---------------|
Ab|-0-0-0--------------0-0-0------------------------7---------------|
Db|-0-0-0--------------0-0-0------------------------7---------------| 

[Refrão]

Eb|-----------------------------------------------------------------|
Bb|-----------------------------------------------------------------|
Gb|----------------------3--3--3---3---3--3-------------------------|
Db|-0--0--0---0---0--0---3--3--3---3---3--3-------------------------|
Ab|-0--0--0---0---0--0---1--1--1---1---1--1-------------------------|
Db|-0--0--0---0---0--0----------------------------------------------| 

Eb|-----------------------------------------------------------------|
Bb|-----------------------------------------------------------------|
Gb|-----------------------------------------------------------------|
Db|-3--3--3---3---3--3---7--7--7---7---7--7-------------------------|
Ab|-3--3--3---3---3--3---7--7--7---7---7--7-------------------------|
Db|-3--3--3---3---3--3---7--7--7---7---7--7-------------------------| 

Eb|-----------------------------------------------------------------|
Bb|-----------------------------------------------------------------|
Gb|----------------------3--3--3---3---3--3-------------------------|
Db|-0--0--0---0---0--0---3--3--3---3---3--3-------------------------|
Ab|-0--0--0---0---0--0---1--1--1---1---1--1-------------------------|
Db|-0--0--0---0---0--0----------------------------------------------| 

Eb|-----------------------------------------------------------------|
Bb|-----------------------------------------------------------------|
Gb|-----------------------------------------------------------------|
Db|-3---3---3-3-----7---7---7-7-------------------------------------|
Ab|-3---3---3-3-----7---7---7-7-------------------------------------|
Db|-3---3---3-3-----7---7---7-7-------------------------------------| 

Eb|-----------------------------------------------------------------|
Bb|-----------------------------------------------------------------|
Gb|----------------------3--3--3---3---3--3-------------------------|
Db|-0--0--0---0---0--0---3--3--3---3---3--3-------------------------|
Ab|-0--0--0---0---0--0---1--1--1---1---1--1-------------------------|
Db|-0--0--0---0---0--0----------------------------------------------| 

Eb|-----------------------------------------------------------------|
Bb|-----------------------------------------------------------------|
Gb|-----------------------------------------------------------------|
Db|-3--3--3---3---3--3---7--7--7---7---7--7-------------------------|
Ab|-3--3--3---3---3--3---7--7--7---7---7--7-------------------------|
Db|-3--3--3---3---3--3---7--7--7---7---7--7-------------------------| 

Eb|-----------------------------------------------------------------|
Bb|-----------------------------------------------------------------|
Gb|----------------------3--3--3---3---3--3-------------------------|
Db|-0--0--0---0---0--0---3--3--3---3---3--3-------------------------|
Ab|-0--0--0---0---0--0---1--1--1---1---1--1-------------------------|
Db|-0--0--0---0---0--0----------------------------------------------| 

Eb|-----------------------------------------------------------------|
Bb|-----------------------------------------------------------------|
Gb|-----------------------------------------------------------------|
Db|-3---3---3-3-----7---7---7-7-------------------------------------|
Ab|-3---3---3-3-----7---7---7-7-------------------------------------|
Db|-3---3---3-3-----7---7---7-7-------------------------------------| 

Guitarra 1
Eb|-----------------------------------------------------------------|
Bb|-----------------------------------------------------------------|
Gb|-----10---10-9-7-9-7-9---------7---------------------------------|  (4x)
Db|-0-0----0--------------10-7-10---10-7----------------------------|
Ab|-----------------------------------------------------------------|
Db|-----------------------------------------------------------------| 

Guitarra 2
Eb|-----------------------------------------------------------------|
Bb|-----------------------------------------------------------------|
Gb|--------------------3---3--3--3-3---3----------------------------|
Db|-0---0--0--0-0--0---3---3--3--3-3---3----------------------------|
Ab|-0---0--0--0-0--0---1---1--1--1-1---1----------------------------|
Db|-0---0--0--0-0--0------------------------------------------------| 

Eb|-----------------------------------------------------------------|
Bb|-----------------------------------------------------------------|
Gb|-5---5--5--5-5--5---3---3--5--5-5---5---0~-----------------------|
Db|-5---5--5--5-5--5---3---3--5--5-5---5---0~-----------------------|
Ab|-3---3--3--3-3--3---1---1--3--3-3---3---0~-----------------------|
Db|-----------------------------------------------------------------| 
Composição de Icon for Hire / Rob Hawkins
Colaboração e revisão:
  • Lucas Kappaun
57 exibições
    • ½ Tom
    • A
    • Bb
    • B
    • C
    • Db
    • D
    • Eb
    • E
    • F
    • F#
    • G
    • Ab
  • Adicionar à lista

    0 comentários

    Ver todos os comentários
    00:00 / 00:00
    Outros vídeos desta música
    Repetir Qualidade Automático
    Outros vídeos desta música
    00:00 / 00:00
    Automático

    Cifra Club Pro

    Aproveite o Cifra Club com benefícios exclusivos e sem anúncios
    Cifra Club Pro
    Aproveite o Cifra Club com benefícios exclusivos e sem anúncios
    OK