Cifra Club

Birds

Imagine Dragons

Cifra: Principal (violão e guitarra)
Tom: A
[Intro]

  A     C#m      B    
E|----2h4p0---2h4-----------------------------------------|
B|--4-------------4----5-5/4/2----------------------------|
G|--------------------------------------------------------|
D|--------------------------------------------------------|
A|--------------------------------------------------------|
E|--------------------------------------------------------|

  A     C#m      B    
E|----2h4p0---2h4-----------------------------------------|
B|--4-------------4----5-5/4/2----------------------------|
G|--------------------------------------------------------|
D|--------------------------------------------------------|
A|--------------------------------------------------------|
E|--------------------------------------------------------|

[Primeira Parte]

A            C#m
 Two hearts, one valve
B                                 B
 Pumpin' the blood, we were the flood

We were the body and
A          C#m
 Two lives, one life
  B                             
Stickin' it out, lettin' you down

Makin' it right

[Pré-Refrão]

 A
Seasons, they will change
 C#m
Life will make you grow
  B                         
Dreams will make you cry, cry, cry
A
Everything is temporary
C#m
Everything will slide
 B                   
Love will never die, die, die

[Refrão]

I know that
A    C#m
Ooh
B             
 Birds fly in every direction
A   C#m
Ooh
B        
 I hope to see you again

[Segunda Parte]

 A        C#m
Sunsets, sunrises
 B                            
Livin' the dream, watchin' the leaves

Changin' the seasons
A           C#m
Some nights I think of you
 B                              
Relivin' the past, wishin' it'd last

Wishin' and dreamin'

[Pré-Refrão]

 A
Seasons, they will change
 C#m
Life will make you grow
 B                        
Death can make you hard, hard, hard
A
Everything is temporary
C#m
Everything will slide
 B                   
Love will never die, die, die

[Refrão]

I know that
A   C#m
Ooh
B             B
 Birds fly in every direction
A   C#m
Ooh
B        
 I hope to see you again
A   C#m
Ooh
B             B
 Birds fly in every direction
A   C#m
Ooh
B            
 So fly high, so fly high

[Ponte]

F#m        C#m              E  G#m
 When the moon is lookin' down
F#m          C#m                E    G#m
 Shine that light up for your ground
F#m         C#m            E  G#m
 I'm flyin' up to let you see
F#m         C#m           E  B
 That the shadow cast is me

[Refrão]

I know that
A     C#m
Ooh
B             B
 Birds fly in every direction
A     C#m
Ooh
B         
 I hope to see you again
A     C#m
Ooh
B             B
 Birds fly in every direction
A     C#m
Ooh
B             
 So fly high, so fly high

[Terceira Parte]

A     C#m
Ooh
B             
 So fly high, so fly high
A     C#m
Ooh
B              B
 So fly high, so fly high
exibições 4.244
Acordes para:
    Composição: Dan Reynolds Colaboração e revisão:
    • Getúlio Vasconcelos
    • Pâm Possani

    0 comentários

    mostrar mais comentários

    Conseguiu tocar?

    9 tocaram 3 ainda não

    Grave um vídeo tocando Birds e mande pra gente!

    00:00 / 00:00
    outros vídeos desta música
    repetir qualidade Automático
    Outros vídeos desta música
    00:00 / 00:00
    Automático
    OK